Trans Siberian Orchestra - Christmas Eve Sarejevo Chords & Tabs

 

Christmas Eve Sarejevo Chords & Tabs

Trans Siberian Orchestra Chords & Tabs

Version: 2 Type: Tab 0 ratings
1 star 2 stars 3 stars 4 stars 5 stars
comments

Christmas Eve Sarejevo Tab

   
Name: Trans-Siberian Orchestra - Christmas Eve Sarejvo 12/24
Album: "Christmas Eve and Other Stories" - Trans-Siberian Orchestra

Intro: (Clean)   Then a violin comes in and plays:

e---0-3-2-        e-0-0-7-7-5-3-2-0-|
 -0-------         -----------------|
 ---------         -----------------|
 ---------         -----------------|
A---------        A-----------------|
E---------        E-----------------|


Then after a while, the hard part crashes in:
(E Chords are 1 count, Es are 1/2 count)

e-------------------------------------|
 -------------------------------------|
 -------------------------------------|
 -2---------2---------2---------2-2-2-|
A-2---------2---------2---------2-2-2-|
E-0-0-0-0-0-0-0-0-0-0-0-0-0-0-0-0-0-0-|

Play that a few time and then another guitar plays:
(Carol of the Bells)
[ Tab from: http://www.guitartabs.cc/tabs/t/trans_siberian_orchestra/christmas_eve_sarejevo_tab_ver_2.html ]
e---------|
 ---------|
 ---------|
 ---------|
A-3-2-3-0-|
E-3-2-3-0-|

Then they hold an E Power chord while a guitar plays:
(fast)

e-------------|
 -------------|
 -------------|
 -------------|
A-------------|
E-3-3-2-3-0-0-|
PM. . . . . .

Then a guitar plays:

e-----------------------|
 -----------------------|
 -----------------------|
 -----------------------|
A-2-2---9-9---7-5---4-2-|
E-0-0---7-7---5-3---2-0-|

An after every time that a guitar plays the previos riff, another
guitar plays:
E5-E-E-E-E-E5-E-E-E-E-E5-E-E-E-E-E5-E5-E5
(This is one of the previous riffs)

There is also alot of soloing and high bends towards the end.. but
this is most of it

Send questions comments to iamnem@musician.com
Comments