Trans-siberian Orchestra - Beethoven Chords & Tabs

 

Beethoven Chords & Tabs

Trans-siberian Orchestra Chords & Tabs

Version: 1 Type: Tab 0 ratings
1 star 2 stars 3 stars 4 stars 5 stars
comments

Beethoven Tab

   
This song is located On Beethovens Last Night, Should be correct if not e-mail me with 
or comments.
(.08)Fades into this.
E-----------------------------------------|
B-----------------------------------------|
G-----------------------------------------|
D-----------------------------------------|
A-0-0-0-0-0-0-0-0-0-0-0-0-0-0-0-0-0-0-0-0-|
E-----------------------------------------|
  * * * * * * * * * * * * * * * * * * * *
Repeated many times until
(.15)
E--------------------  -----------------|
B------------8-------  11-10-8-10-8-----|
G-7-9-10-9-10--10-9-7  -------------10--|
D-7-------------------  ----------------|
A--------------------  -----------------|
E--------------------  -----------------|
      ^3 times^           ^2 times^
(.23)
E----------------------|
B-------------8--------|
G-7-9-10-9-10---10-9-7-|
D----------------------|
A----------------------|
E----------------------|
       ^3 times^
E------------------------------------------------|
B-11-10-8-10-8----8------------------------------|
G--------------10---10-9-10-9-7-9-7--------------|
D-----------------------------------10-12-10-8-7-|
A------------------------------------------------|
E------------------------------------------------|
(.37)
E-15-13-12-10-15-13-11b12-10-15-13-12-10-15-13-12-10-|
B----------------------------------------------------|
G----------------------------------------------------|
D----------------------------------------------------|
A----------------------------------------------------|
E----------------------------------------------------|
[ Tab from: http://www.guitartabs.cc/tabs/t/trans_siberian_orchestra/beethoven_tab.html ]
E-15-13-15-13-15-15-15-15-17~-|
B-----------------------------|
G-----------------------------|
D-----------------------------|
A-----------------------------|
E-----------------------------|
(.53)
E-------  -------------  ------  --------------|
B-------  8------------  ------  8-------------|
G-7-9-10  --10-9-10-9-7  7-9-10  --10-9-10-9-7-|
D-7-----  -------------  7-----  --------------|
A-------  -------------  ------  --------------|
E-------  -------------  ------  --------------|
^3 times^              ^3 times^
E------------------16b17~---16b17~-|
B----------------------------------|
G-9-7------------------------------|
D-----10-12-10-8-7-------7---------|
A----------------------------------|
E----------------------------------|
(1.10)
E-----------------------------------------------------|
B-----------------------------------------------------|
G-----------------------------------------------------|
D-------------------------------------------------5-2-|
A-0-0-0-0-0-0-0-0-1-1-1-1-1-1-1-1-3-3-3-3-3-3-3-3-3-0-|
E-----------------------------------------------------|
  * * * * * * * * * * * * * * * * * * * * * * * *
(0,1,3's played many times, dont know exact number)
(1.27)
E-------------------------------------------|
B-------------------------------------------|
G-4-4-4-4-----------------------------------|
D-4-4-4-4-----------------------------------|
A-2-2-2-2-0-0-0-0-0-0-0-0-0-0-0-0-0-0-0-0-0-|
E-------------------------------------------|
          * * * * * * * * * * * * * * * * *
(repeat 0's until 1.51)
(1.51)
E----------------------------|
B--------------------8-------|
G-[77777]9-10-7-9-10--10-9-7-|
D----------------------------|
A----------------------------|
E----------------------------|

E-----------------------------------------------|
B-11-10-8----------------11-10-8----------------|
G---------10-9-7-6-7-9-7---------10-9-7-6-7-9-7-|
D-----------------------------------------------|
A-----------------------------------------------|
E-----------------------------------------------|

E-------------------------------------------------------12-10------|
B-10-8---------------------10-10-10-8-----------10-8---------13-12-|
G------10-9-7---------7---------------10-9-7---------10------------|
D-------------10-9-10---10-------------------10--------------------|
A------------------------------------------------------------------|
E------------------------------------------------------------------|

E---------------------------------|
B---------------------------------|
G---------------------------------|
D---------------------------------|
A-----------------0-0-0-0-0-0-0-0-|
E-3-3-3-3-3-3-3-3-----------------|
  * * * * * * * * * * * * * * * *
(0's and 3's repeat many times not sure on exact)
(2.20)
E-------  -------------  ------  --------------|
B-------  8------------  ------  8-------------|
G-7-9-10  --10-9-10-9-7  7-9-10  --10-9-10-9-7-|
D-7-----  -------------  ------  --------------|
A-------  -------------  ------  --------------|
E-------  -------------  ------  --------------|
^3 times^              ^3 times^   ^4 times^
(Finale)
E---------------------------------------------------|
B------------------------------------------11-13-15-|
G-7-9-10-9-10-12-10-12-14-12-14-15-14-15-17---------|
D---------------------------------------------------|
A---------------------------------------------------|
E---------------------------------------------------|

E----------------------|
B-13-15-17-15-17-18-15-|
G----------------------|
D----------------------|
A----------------------|
E----------------------|

Good Luck, e-mail me with comments or questions.  Rock on!
*=Palm Mute
~=Vibro/Tremelo
EX. 16b17= 1/2 bend
[tremelo pick]
(revised)
-End
Comments