Trans-siberian Orchestra - An Angels Share Chords & Tabs

 

An Angels Share Chords & Tabs

Trans-siberian Orchestra Chords & Tabs

Version: 1 Type: Tab 0 ratings
1 star 2 stars 3 stars 4 stars 5 stars
comments

An Angels Share Tab

   
This is song #15 on The Christmas Attic..Is pretty simple, and its a cool song
[ Tab from: http://www.guitartabs.cc/tabs/t/trans_siberian_orchestra/an_angels_share_tab.html ]
(.28)
E---------------------------------------------------|
B---------------------------------------------------|
G---------------6-6-6-6---------------------6-6-6-6-|
D-4---4---4-----6-6-6-6------4---4---4------6-6-6-6-|
A-4-2-4-2-4-x6--4-4-4-4--x2--4-2-4-2-4--x4--4-4-4-4-|
E-2-0-2-0-2------------------2-0-2-0-2--------------|
(Continued)
E-------------------------|
B-------------------------|
G-6-4-6-4-6-4-6-4-6-4-6-4-|
D-6-4-6-4-6-4-6-4-6-4-6-4-|
A-4-2-4-2-4-2-4-2-4-2-4-2-|
E-------------------------|

E--------------------------|
B--------------------------|
G--------------------------|
D-4---4---4------4---4---4-|
A-4-2-4-2-4--x3--4-2-4-2-4-|
E-2-0-2-0-2------2-0-2-0-2-|
Singing now..
(2.17)
E----------------------------------------------------------|
B----------------------------------------------------------|
G---------------4--------------------4-6-------------------|
D---4---4---4-7-4--------4---4---4-7-4-6-4---4---4---4---4-|
A-2-4-2-4-2-4-5-2--x3--2-4-2-4-2-4-5-2-4-4-2-4-2-4-2-4-2-4-|
E-0-2-0-2-0-2----------0-2-0-2-0-2-------2-0-2-0-2-0-2-0-2-|

-End
Comments