Trans-siberian Orchestra - An Angel Came Down Chords & Tabs

 

An Angel Came Down Chords & Tabs

Trans-siberian Orchestra Chords & Tabs

Version: 1 Type: Tab 0 ratings
1 star 2 stars 3 stars 4 stars 5 stars
comments

An Angel Came Down Tab

S This is a pretty simple song, and it should be pretty much correct.
(.33)
E-----------------------------------------|
B-------2-0---0---------------------------|
G-----1-----1---6-2-4-----------------6-2-|
D-2-2-----------6-2-4-2** 3 times **--6-2-|
A-2-------------4-0-2-2---------------4-0-|
E-0-------------------0-------------------|
(1.34)
E------------------------------------------|
B-------0----------------------------------|
G-----1---1---6-2-4----------------6-2-4-4-|
D-2-2-------2-6-2-4-2** 3 times **-6-2-4-4-|
A-2-----------4-0-2-2--------------4-0-2-2-|
E-0-----------------0----------------------|
(2.03)
E-----------------------------------------------------------|
B-------------------5---------------5----------------2-0--0-|
G---4---2-4b5r4-------4---2-4b5r4----4---4-----4----1---1---|
D-2-4-2-2-------2-2-----2-2-------2----2-4-2-2-4-2-2--------|
A-2-2-2-0---------2-------0-------2------2-2-2-2-2----------|
E-0---0-----------0---------------0--------0-0---0----------|
(3.13)
E--------------------------|
B--------------------------|
G-6-2-4----------------6-2-|
D-6-2-4-2** 3 times **-6-2-|
A-4-0-2-2--------------4-0-|
E-------0------------------|

And That Should be it. Any problems or comments e-mail me. Good luck, Rock on TSO


*Revision Soon along with rest of Christmas Eve and Other Stories Tabs
[ Tab from: http://www.guitartabs.cc/tabs/t/trans_siberian_orchestra/an_angel_came_down_tab.html ]
Comments