Train - Meet Virginia Chords & Tabs

 

Meet Virginia Chords & Tabs

Train Chords & Tabs

Version: 3 Type: Tab 0 ratings
1 star 2 stars 3 stars 4 stars 5 stars
comments

Meet Virginia Tab

Meet Virginia
by Train 
CD: Train

I saw these guys in concert yesterday, so the tab is atleast 90% legit.

Verse - All palm mute; listen to song to get the feel of it.
       "She doesn't own a dress..." 
|------------------------------------------------|
|------------------------------------------------|
|----0----0----0----0----0----0------------------|
|------------------------------------------------|
|-------3----2----0----5----3--------------------|
|--3---------------------------------------------|
[ Tab from: http://www.guitartabs.cc/tabs/t/train/meet_virginia_tab_ver_3.html ]
Small part done by lead guitar during verse -
|------------------------------------------------|
|------------------------------------------------|
|-----4--5--7----4--5--7----4--5--7----4--0------|
|------------------------------------------------|
|------------------------------------------------|
|------------------------------------------------|

Chorus -

Very simple.  Just an Em-C progression -
     "When she wants to be the queen..."
|--0-----------0---------------------------------|
|--0-----------1---------------------------------|
|--0-----------0---------------------------------|
|--2-----------2---------------------------------|
|--2-----------3---------------------------------|
|--0-----------3---------------------------------|

That's about all you need.  Haven't been able to ace the solo yet,
so you'll have to get that on your own.

Enjoy.

Comments