Train - Meet Virginia Chords & Tabs

 

Meet Virginia Chords & Tabs

Train Chords & Tabs

Version: 1 Type: Tab 0 ratings
1 star 2 stars 3 stars 4 stars 5 stars
comments

Meet Virginia Tab

#----------------------------------PLEASE
NOTE--------------------------------#
#This file is the author's own work and represents their interpretation
of the#
#song. You may only use this file for private study, scholarship, or
research.#
#-----------------------------------------------------------------------------#
#-- File created with Instab -
http://www.pconline.com/~smcarey/instab.html --#
#-----------------------------------------------------------------------------#

Author/Artist: Train
Title: Meet virginia
Album: train
Transcribed by: Dustin
Email: Marv3tab@hotmail.com
[ Tab from: http://www.guitartabs.cc/tabs/t/train/meet_virginia_tab.html ]
------------------------------------------------------------------------------
------------------------------------------------------------------------------
---------0--------0------------0-------0--------------------------------------
--------------------------3--------0------------------------------------------
----2---------3---------------------------------------------------------------
----3-------------------------------------------------------------------------
    palm mute all of this                                              
      

------------------------------------------------------------------------------
------------------------------------------------------------------------------
------------555555555---------7777777777777-----------------------------------
------2-----555555555---------7777777777777-----------------------------------
------2-----333333333---------5555555555555-----------------------------------
------0-----------------------------------------------------------------------
 chorus                                                                
Comments