Train - Drops Of Jupiter Chords & Tabs

 

Drops Of Jupiter Chords & Tabs

Train Chords & Tabs

Version: 6 Type: Tab 0 ratings
1 star 2 stars 3 stars 4 stars 5 stars
comments

Drops Of Jupiter Tab

Train: Drops of Jupiter.
Tabbed by Hefty Baggs,  dr_lipshitz@hotmail.com.
  
ARTIST: Train
SONG: Drops of Jupiter
ALBUM: Drops of Jupiter
TAB BY: Hefty Baggs
-------------------------------------------------

Intro by Paino: (repeat)
|------0-1----------0--------------------------|
|-1----1-1---3----3-0---1------3-3-3b4-------3-|
|-0----------0----0-----2------2-2-2b3-----2-2-|
|-2--2-------0----------3----3-------------3---|
|-3--3-------2----------3----------------3-----|
|------------3--3-------1--1-------------1-----|

Verse/ Chorus: 
[ Tab from: http://www.guitartabs.cc/tabs/t/train/drops_of_jupiter_tab_ver_6.html ]
|-0--3---2--3---1--3---0-|
|-3--3---3--3---1--3---1-|
|-0--3---2--2---2--3---0-|
|-0--3---0--0---3--3---2-|
|-2--3----------3--3---3-|
|-3--3----------1--1---3-|

You play the first chord several times,
then you 'bar' once.  This will create
the effect used in the song.

Verse 2:

|-0--0-2-0--0-2-0-|
|-3--3-3-1--1-3-3-|
|-0--0-2-0--0-2-0-|
|-0--0-0-2--2-0-0-|
|-2--2---3--3---2-|
|-3--3---3--3---3-|

Solo:

|---------------------------------------6b-|
|-3-3-3-3-3-2h3---3-3-3-3-3-2h3-5-3-2-3----|
|-0-2-0-2-0-------0-2-0-2-0----------------|
|------------------------------------------|
|------------------------------------------|
|------------------------------------------|

|--------6b--|
|-5-3-2-3----|
|------------|
|------------|
|------------|
|------------| 
:: Ultimate Guitar Archive :: 
http://www.ultimate-guitar.com 

Comments