Train - Drops Of Jupiter Chords & Tabs

 

Drops Of Jupiter Chords & Tabs

Train Chords & Tabs

Version: 5 Type: Tab 2 ratings
1 star 2 stars 3 stars 4 stars 5 stars
comments

Drops Of Jupiter Tab

   
#----------------------------------PLEASE NOTE---------------------------------#
#This file is the author's own work and represents their interpretation of the #
#song. You may only use this file for private study, scholarship, or research. #
#------------------------------------------------------------------------------#


Artist: Train
Title: Drops Of Jupiter
Transcribed by: Mike Hodnett
Email: FoxZero@mindspring.com

						

These Chords are the chords thart are played basically throughout the whole song
--------------///Chords\\\--------------

C:				X32O1O
Cadd9:				X32O3O	
G:				32OO3X
G(no2)				32OO33
G6				32OO3O	
F:				133211
F (alternative):		OO3211
Asus4:				XO223O
A7sus4:				XO2233

---------                      ---------
and for ppl who love to use barre chords
---------                      ---------

C:				33555X
Csus4:				33556X
G:				35523X
G6:				35X45X
F:				133211
F6:				13X231


----------------------------------------
Your going to have to mess around the the variation of the G chords and the C.
I like to play the G6 personaly... 



I play the INTRO something like the following:

     C              Cadd11      G              G6          F			
E||--0--------0---0-1--1--1--|--X--------X---X-0--0--0--|--1--------1---1-1--1--1--|--1--------1---1-1--1--1--|--1---------||
B||--1--------1---1-1--1--1--|--1--------1---1-1--1--1--|--1--------1---1-1--1--1--|--1h3(?)---1---1-1--1--1--|--1h3(?)----||
G||--0--------0---0-0--0--0--|--0--------0---0-0--0--0--|--2--------2---2-2--2--2--|--2--------2---2-2--2--2--|--2---------||
D||--2--------2---2-2--2--2--|--0--------0---0-0--0--0--|--3--------3---3-3--3--3--|--3--------3---3-3--3--3--|--3---------||
A||--3--------3---3-3--3--3--|--2--------2---2-2--2--2--|--3--------3---3-3--3--3--|--3--------3---3-3--3--3--|--3---------||
E||--------------------------|--3--------3---3-3--3--3--|--1--------1---1-1--1--1--|--1--------1---1-1--1--1--|--1---------||

Not quite sure about the hammer on when he gets to the F but this sounds close.





[ Tab from: http://www.guitartabs.cc/tabs/t/train/drops_of_jupiter_tab_ver_5.html ]
----------------------------------------
Now For the ppl who like using the barre chords, try this... it sounds almost the same...


     C              Csus4       G              G6          F                          F6       F                 F6  
E||--------------------------|--------------------------|--1--------1---1-1--1--1--|--1--------1---1-1--1--1--|--1-||
B||--5--------5---5-6--6--6--|--3--------3---3-5--5--5--|--1--------1---1-1--1--1--|--3--------1---1-1--1--1--|--3-||
G||--5--------5---5-5--5--5--|--4--------4---4-4--4--4--|--2--------2---2-2--2--2--|--2--------2---2-2--2--2--|--2-||
D||--5--------5---5-5--5--5--|--5--------5---5-x--x--x--|--3--------3---3-3--3--3--|--3--------3---3-3--3--3--|--3-||
A||--3--------3---3-3--3--3--|--5--------5---5-5--5--5--|--3--------3---3-3--3--3--|--3--------3---3-3--3--3--|--3-||
E||--3--------3---3-3--3--3--|--3--------3---3-3--3--3--|--1--------1---1-1--1--1--|--1--------1---1-1--1--1--|--1-||


		(i think that if you play the progression above, that it is way better, but only if
		 your using barre chords... just play what
		 want... it sounds great either way)

----------------------------------------


Intro Progression:

C - G6 - F



Verse Progression:

C
Now that she's back in the atmosphere With 

G				   F
drops of Jupiter in her hair, hey, hey

C
She acts like summer and walks like rain

  G					          F
Reminds me that there's some time to change, hey, hey

C
Since the return of her stay on the moon She 

G 						  F
listens like spring and she talks like June, hey, hey



	//-- 1st Chorus --//

Chorus Progression:

G				
Tell me did you sail across the 

Asus4
sun Did you make it to the Milky
 
Cadd9
Way to see the lights all faded

G
And that heaven is overrated


G
Tell me, did you fall for a shooting 

Asus4
star One without a permanent 

Cadd9
scar And did you miss me while you were 

G
looking for yourself out 
		      _______________________________________________________________________
C           G6 - F 
Comments