Train - Drops Of Jupiter Chords & Tabs

 

Drops Of Jupiter Chords & Tabs

Train Chords & Tabs

Version: 1 Type: Bass Tab 0 ratings
1 star 2 stars 3 stars 4 stars 5 stars
comments

Drops Of Jupiter Bass Tab

Song: Drops of jupiter
Artist: Train

most notes sustain so hold all out

(0:48)
|--------------------|----------|----------|----------|
|--------------------|----------|----------|----------|
|--------------------|-5------\-|----------|-3--------|
|-3--------------5---|----------|-1--------|----------|

                      it comes back here on ?
|--------------------|-----------------|------------|-----------|r
|--------------------|--------------7--|-/12--------|-\3--------|e
|--------------------|-5--------/9-----|------------|-----------|s
|-3--------------5---|-----------------|------------|-----------|t
[ Tab from: http://www.guitartabs.cc/tabs/t/train/drops_of_jupiter_btab.html ]
Second verse
|-----------|----------------|----------|---------------|-----------|
|-----------|----------------|----------|---------------|-----------|
|-3-----3-2-|----------------|----------|-------------0-|-3----3-5--|
|-----------|-3-------5---\0-|-1--------|-1-----0-1-3---|-----------|

|------------|------------|----------------|------------|--------|
|-5--7---\2--|-3----------|-----3------4-5-|------------|--------|
|------------|---------3--|----------------|-3------3-5-|--------|
|------------|------------|-1-1------------|------------|-3----3-|

                          2nd Pre-Chorus(2:00)
|----------|-------------|-------------|-------------|------3--2-|
|----------|-------------|-------------|-------------|-----------|
|----------|-------------|-------------|-5--5-5-5----|-----------|
|-1--1-----|-1----r--1-3-|-3--3--3-3-5-|-----------0-|-1---------|

|-------------|---------------|  -  -  -   |
|-------------|---------------|  -  - -  -  |
|-3-----3-3-5-|---------------| - back to ? - | then chorus
|-------------|-3------3-3--5-|-   -     -   -|

sorry its not complete but whatever
Comments