Train - Calling All Angels Chords & Tabs

 

Calling All Angels Chords & Tabs

Train Chords & Tabs

Version: 1 Type: Bass Tab 0 ratings
1 star 2 stars 3 stars 4 stars 5 stars
comments

Calling All Angels Bass Tab

Train Calling all angels
Tabbed By Dave Wachala
csoul@mail.com
[ Tab from: http://www.guitartabs.cc/tabs/t/train/calling_all_angels_btab.html ]
Drum enter with bass
Verse:
-----------------------7h8-8p7---I---------------------------------I
-8-----6-6-----6---------------8-I-8-----6-6-----6-----------------I
------------6h8--6---------------I------------6h8--6-----6x6x6h8-6-I
---------------------------------I---------------------------------I
Pre Chorus:
----13-12----13-12----13-12-10---I
-------------------------------13I 2 times
-11-------11-------11------------I
---------------------------------I
Chorus:
---------------------------------I
---------------------------------I 4 times
-------------------6--6--6-6--6h8I
-6---6---6--6--4-----------------I
"I won't give up..."
-----------------I-----------------I----------------I---------------I
-----------------I-----------------I----------------I---------------I
--11----11h13-13-I-13-----11H13-13-I-15----11H13-13-I-16---16-16-16-I
-----------------I-----------------I----------------i---------------I

2 Verse
4 Chorus
1 "I won't give up" riff
STOP
8 CHorus
Comments