Trail Of Dead - Worlds Apart Chords & Tabs

 

Worlds Apart Chords & Tabs

Trail Of Dead Chords & Tabs

Version: 1 Type: Tab 0 ratings
1 star 2 stars 3 stars 4 stars 5 stars
comments

Worlds Apart Tab

   
-----------------------------------------------------------------
Worlds Apart
...And You Will Know Us By The Trail of Dead
From: Worlds Apart
-----------------------------------------------------------------
Tabbed by: Tony Damiano
Email: tony_damiano@hotmail.com

Standard Tuning
2 Guitars
	This is a great song. Listen to song for Rhythm and timing.
Please email me with any comments or suggestions

Guitar 2 
 Plays Power/Barre chords in background throughout, and comes in
heavily at the end of the verses and chorus.


Guitar 1 Intro x1
    D             A/D        Bm/D      G/D           
 e|-----3-------3-------3-------3--------|
 B|---2---2---2---2---2---2---2---2------|
 G|--------------------------------------|
 D|-0------------------------------------|
 A|---------0-------2--------------------|
 E|-------------------------3------------|

Guitar 1   
Verse
    D              A/D      Bm/D       G/D
 e|-----3-------3-------3-------3--------|
 B|---2---2---2---2---2---2---2---2------|
 G|--------------------------------------|
 D|-0------------------------------------|
 A|---------0------2---------------------|
 E|-------------------------3------------|
 Random lost souls have asked, What's the future of Rock and Roll?

     D            A/D       Bm/D       G/D
 e|-----3-------3-------3-------3--------|
 B|---2---2---2---2---2---2---2---2------|
 G|--------------------------------------|
 D|-0------------------------------------|
 A|---------0------2---------------------|
 E|-------------------------3------------|
 I say I don't know. Does it matter?

     D            A/D     Bm/D       G/D
 e|-----3-------3-------3-------3--------|
 B|---2---2---2---2---2---2---2---2------|
 G|--------------------------------------|
 D|-0------------------------------------|
 A|---------0------2---------------------|
 E|-------------------------3------------|
This and that scene, they sound all the same to me
[ Tab from: http://www.guitartabs.cc/tabs/t/trail_of_dead/worlds_apart_tab.html ]
  D             A/D         Bm/D         Bm/D
 |-----3-------3--------3-------3-------|
 |---2---2---2---2---2----2---2---2-----|
 |--------------------------------------|
 |-0------------------------------------|
 |---------0------2---------2-----------|
 |--------------------------------------| 
 Neither much worse, nor much better

 D                A/D       Bm/D       G/D
 e|-----3-------3-------3-------3--------|
 B|---2---2---2---2---2---2---2---2------|
 G|--------------------------------------|
 D|-0------------------------------------|
 A|---------0------2---------------------|
 E|-------------------------3------------|
 We're so F***ed these days. We don't know who to hate or who to praise
    D             A/D       Bm/D       G/D
 e|-----3-------3-------3-------3--------|
 B|---2---2---2---2---2---2---2---2------|
 G|--------------------------------------|
 D|-0------------------------------------|
 A|---------0------2---------------------|
 E|-------------------------3------------|
  Consider that sufferin' and pain.

  D               A/D     Bm/D         G/D
 e|-----3-------3-------3-------3--------|
 B|---2---2---2---2---2---2---2---2------|
 G|--------------------------------------|
 D|-0------------------------------------|
 A|---------0------2---------------------|
 E|-------------------------3------------|
 We're so privileged, a fact, we forget about as

  D             A/D      Bm/D          E/D
 |-----3-------3--------3-------3-------|
 |---2---2---2---2---2----2---2---2-----|
 |--------------------------------------|
 |-0------------------------------------|
 |---------0------2---------------------|
 |--------------------------0-----------| 
 We go whining all over the place


Chorus [Barre Chords] Guitars 1 and 2

D             A                 Bm            G
How they laugh as we shovel the ashes
D        A    E
Wrath has  Soured
D               A                  Bm               G
Blood and death we will pay back the dead
              D       A          Bm
For this candy store of ours
Comments