Tragically Hip - The Luxury Chords & Tabs

 

The Luxury Chords & Tabs

Tragically Hip Chords & Tabs

Version: 1 Type: Bass Tab 0 ratings
1 star 2 stars 3 stars 4 stars 5 stars
comments

The Luxury Bass Tab

Song: The Luxury
Artist: The Tragically Hip
Album: Live between us
Tabbed by: Dave Abramowitz (Awitz1@aol.com)


Im not canadian or whatever but its a cool bass line.
I dont think this is the whole thing but this is whats played when
hes talking about the talking bannana or whatever.  If you want to send
me corrections, go for it.

[ Tab from: http://www.guitartabs.cc/tabs/t/tragically_hip/the_luxury_btab.html ]
G|----------------------------------------------------------
D|------------5-----------------5---------------------------
A|-----5-6-7----7-5-------5-6-7---7-5-----------------------
E|--7------------------7------------------------------------

Then sometimes it goes into this

G|----------5-------------------5---------------------------
D|----5-6-7--7-5----------5-6-7---7-5-----------------------
A|--7-------------------7-----------------------------------
E|----------------------------------------------------------


And then keep playin when the singer is talking about nothin.
Comments