Tragically Hip - New Orleans Is Sinking Chords & Tabs

 

New Orleans Is Sinking Chords & Tabs

Tragically Hip Chords & Tabs

Version: 3 Type: Tab 0 ratings
1 star 2 stars 3 stars 4 stars 5 stars
comments

New Orleans Is Sinking Tab

Song name: New orleans is sinking
artist: tragicly hip
Tabber: jsncrdg
Date tabbed: 07/04

THIS TOOK A LONG TIME!! PLEASE RATE IT! AS YOU CAN SEE THIS IS A LONG SONG AND TOOK 3 
TO TAB!

*= hammer on
`=pull of
^= Bend
/=slide

(INTRO)
E|--------------------|
B|--------------------|
G|--------------------|repeat 4x
D|-----2-------0-0*2--|
A|-------2---2--------|
E|-0-0-----3----------|

E|--------------------------|  |---------------------------------|
B|-3`0-0-5-0-3`0------------|  |----------------------------3`0-5|
G|---------------4-2`0--2`0-|3x|-2-*3`0-2`0-2`0-2`0-0-4-4-4------|
D|------------------------ 2|  |---------------------------------|
A|--------------------------|  |---------------------------------|
E|--------------------------|  |---------------------------------|

E|-------------------------------------------------------------------------|
B|-------------------------------------------------------------------------|
G|---------5---------5---------5-------------------------------------------|
D|---------5---------5---------5-----5-7^`5-*7`5---------------------------|
A|-7-7-5-7---7-7-5-7---7-7-5-7---7-7---------------------------------------|
E|-5-5-------5-5-----------------------------------------------------------|
		* on the 7th fret bend and release then pull of

E|-------------------------------------------------------------------------|
B|---------3-------------5-------------------------------------------------|
G|--4-4-4-4--4-4-4-7-7-7---7-----------------------------------------------|
D|-------------------------------------------------------------------------|
A|-------------------------------------------------------------------------|
E|-------------------------------------------------------------------------|


E|--------------|------------|-----|-----------------------------------|
B|-3`0-0-5-0-3`0|------------|-----|-----------------------------------|
G|--------------|-4-2`0--2`0-|-2^`0|--2-*3`0-2`0-2`0-2`0---0---0-------|
D|--------------|---------- 2|-----|---------------------2---2---0-2-2-|
A|--------------|------------|-----|-----------------------------------|
E|--------------|------------|-----|-----------------------------------|
		  1st ending  2nd                 3rd

E|-------------------------8/----------------------------------------------|
B|-------------------------------------------------------------------------|
G|----------5----------5---------------------------------------------------|
D|----------5--7-7-----5-5-------------5------5-7^`5-----------------------|
A|--7-7--------7-7-5-7---5-----5-5-5*7----7-7------------------------------|
E|------5-7----5-5-------7-------------------------------------------------|

E|-------------------------------------------------------------------------|
B|---------3-----------------5---5/----------------------------------------|
G|-4-4-4-4---4-4-4-4---7-7-7---7-------------------------------------------|
D|-------------------------------------------------------------------------|
A|-------------------------------------------------------------------------|
E|-------------------------------------------------------------------------|

E|--------------|------------|-----|-----------------------------------|
B|-3`0-0-5-0-3`0|------------|-----|-----------------------------------|
G|--------------|-4-2`0--2`0-|-2^`0|-4-2`0-3`0-2`0--2`0----------------|
D|--------------|---------- 2|-----|-----------------------------------|
A|--------------|------------|-----|-----------------------------------|
E|--------------|------------|-----|-----------------------------------|
		  1st ending  2nd                 3rd


E|---------------------------|
B|-0-0-2/4-4-4/7-7-7/9-9-9---|
G|---------------------------|
D|---------------------------|
A|---------------------------|
E|---------------------------|

E|--------------------------------------------------7-3-5`0----------------|
B|-5`0-3`0-5`0-3`0-3`0-5`0-3`0-5`0-5`0-3`0-5`0-3`0-------------------------|
G|-------------------------------------------------------------------------|
D|-------------------------------------------------------------------------|
A|-------------------------------------------------------------------------|
E|-------------------------------------------------------------------------|

E|------------------------------------------------------------0------------|
B|-3`0-0-5-0-3`0------------7/5/3/5--0-0-3-0-0-5---------------------------|
G|---------------4-2`0-2`0-----------4-4-4-4-4-4-2-2-2-2--0*1---3----------|
D|-------------------------------------------------------------------------|
A|-------------------------------------------------------------------------|
E|-------------------------------------------------------------------------|
[ Tab from: http://www.guitartabs.cc/tabs/t/tragically_hip/new_orleans_is_sinking_tab_ver_3.html ]
E|------------------------------------------------------------------|
B|-3`0-0-5-0-3`0-----------------2^---------------------------------|
G|---------------4-2`0--2`0-0-0-----3-------------------------------|
D|------------------------------------2`0-{16x}----2----------------|
A|------------------------------------------------------------------|
E|----------------------------------------------3^------------------|

*middle part*	mostly small bends but nothing big just repeat the intro until it starts 
regular guitar again

E|-------------------------------------------------------------------------|
B|-5`0-3`0-5`0-3`0-3`0-5`0-3`0-5`0-5`0-3`0-5`0-3`0-3`0-5`0-3`0-5`0---------|
G|-------------------------------------------------------------------------|
D|-------------------------------------------------------------------------|
A|-------------------------------------------------------------------------|
E|-------------------------------------------------------------------------|

E|-------------------------------|
B|-3`0-0-5-0-3`0-----------------|
G|---------------4-2`0--2`0------|x2
D|------------------------ 2-----|
A|-------------------------------|
E|-------------------------------|


E||------------------------------------------------------------------------|
B|-5`0-3`0-5`0-3`0-3`0-5`0-3`0-5`0-5`0-3`0-5`0-3`0-3`0-5`0-3`0-5`0---------|
G|-------------------------------------------------------------------------|
D|-------------------------------------------------------------------------|
A|-------------------------------------------------------------------------|
E|-------------------------------------------------------------------------|

E|------------------------------------------------------------|
B|-3`0-0-5-0-3`0-----------------------------------------3`0-5|
G|---------------4-2`0--2`0---2-*3`0-2`0-2`0-2`0-0-4-4-4------|
D|------------------------ 2----------------------------------|
A|------------------------------------------------------------|
E|------------------------------------------------------------|

E|--------------------------------------------|
B|-----3--3-5-3-3-0-5-5---------3--------3^`0-|
G|-4-4--4---------------4-4-4-4---4-4-4--3^`0-|
D|--------------------------------------------|
A|--------------------------------------------|
E|--------------------------------------------|

E|------------------------------------------6-3|
B|-16^-3`0-5`0-3`0---------16^-3`0-5`0-3`0-----|
G|-----------------2^`0------------------------|
D|---------------------------------------------|
A|---------------------------------------------|
E|---------------------------------------------|

E|--------------------------------------------6-3-|
B|-3`0-0-5-0-3`0--------------3`0-0-5-0-3`0-0-----|
G|---------------4-2`0--2`0-----------------------|
D|------------------------ 2----------------------|
A|------------------------------------------------|
E|------------------------------------------------|

E|------------------------------------------------------------|
B|-3`0-0-5-0-3`0-----------------------------------------3`0-0|
G|---------------4-2`0--2`0---2-*3`0-2`0-2`0-2`0-0-4-4-4------|
D|------------------------ 2----------------------------------|
A|------------------------------------------------------------|
E|------------------------------------------------------------|

E|-0-0-0-0-0-0-0-0-0-0-0-0-0-0-0-0-0-0-0-0-0-0-0-0-0-0-0-------------------|
B|-3/5-5-5-5-5-5-5-5-3/5-5-5-5-5-5-5-5-8/5-5-5-5-5-5-5-5-------------------|
G|-------------------------------------------------------------------------|
D|-------------------------------------------------------------------------|
A|-------------------------------------------------------------------------|
E|-------------------------------------------------------------------------|

E|-------------------------------|   |-------------------------------------|
B|-3`0-0-5-0-3`0-----------------|   |----------------3`0-0----------------|
G|---------------4-2`0--2`0------|x4 |-2^-0-2`0-4-4-4----------------------|
D|------------------------ 2-----|   |-------------------------------------|
A|-------------------------------|   |-------------------------------------|
E|-------------------------------|   |-------------------------------------|

E|-------------------------------------------------------------------------|
B|-2`0---------------------------------------------------------------------|
G|-------------------------------------------------------------------------|
D|-------------------------------------------------------------------------|
A|------------------------------------------------0------------------------|
    * repeat this one note for about 3 seconds. Then pluck the open E and let both 
ring

RATE THIS PLEASE IT TOOK A LONG TIME!!
Comments