Tragically Hip - Little Bones Chords & Tabs

 

Little Bones Chords & Tabs

Tragically Hip Chords & Tabs

Version: 2 Type: Bass Tab 0 ratings
1 star 2 stars 3 stars 4 stars 5 stars
comments

Little Bones Bass Tab

song: Little Bones
band: The Tragically Hip
album: Road Apples

This is my first submission, and this song is so easy, I'm surprised that
it's not already posted.


main riff
|--------------------------------------------------------|
|--------------------------------------------------------|
|------------------------------0-0-2-2--2-2-2-2-2-2-2-0-2|
|-0-0-2-2--2-2-2-2-2-2-2-2-0-2---------------------------|


"two-fifty for a..."
|-----------------------------------------------|
|-----------------------------------------------|
|----------------------------0---------2--------|
|-0-0-2-2--2-2-2-2-2-2-2-0-2--------------------|

[ Tab from: http://www.guitartabs.cc/tabs/t/tragically_hip/little_bones_btab_ver_2.html ]
"I can cry, beg, and whine..."
|-----------------------------|
|-----------------------------|
|-5--5--5---------------------|
|------------5--4--0----------|


"...baby eat this chicken slow..."
|------------------------------------|
|------------------------------------|
|-------------------0-0-2-2--0-0-2-2-|
|-0-0-2-2--0-0-2-2-------------------|


"nothing's dead down here..."
|-----------------------------------|
|-----------------------------------|
|-0-2-2-2-2-2-----------------------|
|-------------0-0-2---2-2-2-2-2-2-2-|


I'm not quite sure about that last part, but the rest sounds alright.
You can make variations and have fun with it, because it's a great song!
Long live The Hip! The greatest Canadian rock band!

Tab by Erin MacIntosh
pumpkinhead4ever@yahoo.com 
Comments