Tragically Hip - If New Orleans Is Beat Chords & Tabs

 

If New Orleans Is Beat Chords & Tabs

Tragically Hip Chords & Tabs

Version: 1 Type: Tab 0 ratings
1 star 2 stars 3 stars 4 stars 5 stars
comments

If New Orleans Is Beat Tab

Hi,
So far, this is all I have been ably to tab out from the song. It's the main riff
and is repeated through the most of the song except for the verses, it goes as such...
[ Tab from: http://www.guitartabs.cc/tabs/t/tragically_hip/if_new_orleans_is_beat_tab.html ]
e|-------0-----0-----3-2-0-----|
B|---3-----3-----3---------3---|
G|-----2-----2-----2---------2-|
D|-0---------------------------|
A|-----------------------------|
E|-----------------------------|

e|-------0-----0-----3-2-0-----|
B|---3-----3-----3---------3---|
G|-----2-----2-----2---------2-|
D|-0---------------------------|
A|-----------------------------|
E|-----------------------------|
(had to put it twice to be accepted)
When I figure out more of the song I'll add it.

Luke
Comments