Tragically Hip - Grace Too Chords & Tabs

 

Grace Too Chords & Tabs

Tragically Hip Chords & Tabs

Version: 2 Type: Tab 0 ratings
1 star 2 stars 3 stars 4 stars 5 stars
comments

Grace Too Tab

tragically hip, grace too.
 Tabbed by ggirouard17@hotmail.com.
  
E-------------------------------------------------------------------
B-------------------------------------------------2p1---------------
G-------------------------------------------------------------------
D----6-7-9--9--9---9-9---9-7-6--6---6-6----0h2--------4---------1---
A--7-----7--7--7---7-7---7-7-7--7---7-7-----------------2h4-2-------
E----------------0-----0----------0-----0-0-------------------0-----
[ Tab from: http://www.guitartabs.cc/tabs/t/tragically_hip/grace_too_tab_ver_2.html ]
 VERSE:
E-------------------------------------------------------------------
B-------------------------------------------------------------------
G-----------------------------------------------2p1-----------------
D----6-9-9--9---9-9---9-7-6--6---6-6----0h2---------4-2h4p2---------
A--7-----7--7---7-7---7-7-7--7---7-7--------------------------------
E-------------0-----0----------0------0------0-0--------------------

  Rhy. fig. 1 (played under the verse)
D---------------------------
A----7-7-7----5-5-5----4-2-- REPEAT
E--0-0-0-0--0-0-0-0--0-0-0--

 Rhy. Fig. 2 (bridge)
D-------------------
A----7--5---4------- REPEAT
E-0-----------3b4p0-


CHORUS:
G--6-6--6-6/8--8-1--
D--7-7--7-7/9--9-2--
A--7-7--7-7/9--9-2--
E--5-5--5-5/7--7-0-- 
:: Ultimate Guitar Archive :: 
http://www.ultimate-guitar.com 

 
Comments