Tragically Hip - Fiddlers Green Chords & Tabs

 

Fiddlers Green Chords & Tabs

Tragically Hip Chords & Tabs

Version: 4 Type: Tab

Fiddlers Green Tab

   
Fiddler's Green ~ The Tragically Hip ~ Road Apples
Standard Tunning EADGBe

Great song and Im pretty sure this is 100% right.

   						 E
---x-------------------------------------------0---------------------|
---2-------2p0---------------------------------0---------------------|
---x---4--------4----------------2--------2----1---------------------|
---2---2-----------2---------2---4---2h4-------2---------------------|
---2---2-----------2----2h4------2-------------2---------------------|
---x-------------------------------------------0---------------------|

During Chorus and Verses play E B A and when there is a break before E or B do this thing
[ Tab from: http://www.guitartabs.cc/tabs/t/tragically_hip/fiddlers_green_tab_ver_4.html ]
------------0--------------------------------------------------------|
------------0--------------------------------------------------------|
------------1-------2--4---------------------------------------------|
---------2--2---2h4----4---------------------------------------------|
----2h4-----2----------2---------------------------------------------|
------------0--------------------------------------------------------|

Finish on:
--0-----------------------0-----------|
--0---------------------0-------------|
--1-------------------1---------------|
--2-------2---------2-----------------|
--2---2h4---------2-------------------|
--0-------------0---------------------|

Chords:

E:
--0--|
--0--|
--1--|
--2--|
--2--|
--0--|
B:
-----|
-----|
--4--|
--4--|
--2--|
-----|

A:
-----|
--2--|
--2--|
--2--|
--0--|
-----|