Tragically Hip - Fiddlers Green Chords & Tabs

 

Fiddlers Green Chords & Tabs

Tragically Hip Chords & Tabs

Version: 2 Type: Tab 0 ratings
1 star 2 stars 3 stars 4 stars 5 stars
comments

Fiddlers Green Tab

The Tragically Hip:  Fiddler's Green
inadequately tabbed by: Jamie Auck

This is far from perfect, and I think it might be way easier to
play with some other tuning, but what follows is for standard
tuning. Questions, comments, or more importantly, corrections
send to jamieauck@hotmail.com

Intro:
|-------------------------------------------------------------------------------------------|
|-------------------------------------------------------------------------------------------|
|-6---4---------------1---------------1---------6---4---------------2--------------2--------|
|-2---2---6-/-4---2---2-----------2---2---------2---2---6-/-4---2---2-----------2--2--------|
|-2---2---2---2---2---2------2h4------2---------2---2---2---2---2---4-----2h4------4--------|
|---------------------0---------------0-----------------------------------------------------|

|-------------------------------------------------------------------------------------------|
|-------------------------------------------------------------------------------------------|
|-4---------------1------------2---------2------------1--------------------------1----------|
|-2---6-/-4---2---2--------2---4----2h4-----4p2---0---2------------2---2---------2----------|
|-2---2---2---2---2---2h4------2----------------------2-----2h4-----------4p2----2----------|
|-----------------0-----------------------------------0--------------------------0----------|

Verse 1:
 September seventeen                         for a girl I know it's mothers day
|----------------------------------------------------------------------------------------------|
|----------------------------------------------------------------------------------------------|
|-6---4---------------1--------------1--------6-----4--------------------2----------------2----|
|-2---2---6-/-4---2---2----------2---2--------2-----2-----6--/-4-----2---2------------2---2----|
|-2---2---2---2---2---2----2h4-------2--------2-----2-----2----2-----2---4-------2h4------4----|
|---------------------0--------------0---------------------------------------------------------|

her son is gonna leave                         and that's where he will stay
|-----------------------------------------------------------------------------------------------|
|-----------------------------------------------------------------------------------------------|
|-6---4---------------1-------------------1-----------------4------6---6p4----4-----------------|
|-2---2---6-/-4---2---2-------------------2------4----2-----4------4---4------4-----------------|
|-2---2---2---2---2---2-------------------2-----------------2------2---2------2-----------------|
|---------------------0-------------------0-----------------------------------------------------|
[ Tab from: http://www.guitartabs.cc/tabs/t/tragically_hip/fiddlers_green_tab_ver_2.html ]
wind on a weathervane                   tearing blue eyes sailor mean
|--------------------------0--------------------------------------------------------------------|
|-----5---5----2-----0-----0--------------------------------------------------------------------|
|-4---4---4----4-----------1-------------6-----4--------------------2-----------------2---------|
|-4---4---4----4-----------2-------------2-----2----6--/--4----2----2-------------2---2---------|
|-2---2---2----2-----------2-------------2-----2----2-----2----2----4--------2h4------4---------|
|--------------------------0--------------------------------------------------------------------|

as Falstaff sings a sorrowful refrain      for a boy in Fiddler's Green
|-----------------------------------------------------------------------------------------------|
|-----------------------------------------------------------------------------------------------|
|-6---4---------------1----------------------------------2--------------2-----1---------------1-|
|-2---2---6-/-4---2---2-----------------------------2----4------2h4-----------2----------2----2-|
|-2---2---2---2---2---2----------------------2h4---------2--------------------2----2h4--------2-|
|---------------------0-------------------------------------------------------0---------------0-|

Verse 2:
His tiny knotted heart,   well I guess it never worked too good
the timber tore apart,  and the water gorged the wood
you can hear her whispered prayer, for men at masts that always lean
the same wind that moves her hair, moves her boy through Fiddler's Green

Bridge:
Oh,  nothing's changed anyway     Oh, nothing's changed anyway
|------------------------------------------------------------------------------------------------|
|-------------------------------2------------------------------------------2---------------------|
|-4-----------------------------2-----------4------------------------------2---------------------|
|-4-----------------------------2-----------4------------------------------2---------------------|
|-2-----------------------------0-----------2------------------------------0---------------------|
|------------------------------------------------------------------------------------------------|

Oh, anytime today
|------------------------------------------------------------------------------------------------|
|------------------------------------------------------------------------------------------------|
|-4----------------1---------------------1-------------------------------------------------------|
|-4----------------2----------------2----2-------------------------------------------------------|
|-2----------------2----------2h4--------2-------------------------------------------------------|
|------------------0---------------------0-------------------------------------------------------|

Verse 3:
He doesn't know a soul, and there's nowhere that he's really been
but he won't travel long alone, no not in Fiddler's Green
balloons all filled with rain, as children's eyes turn sleepy mean
as Falstaff sings a sorrowful refrain, for a boy in Fiddler's Green

Coda (x5):
|-------------------------------------0----------------------------------------------------------|
|-------------------------------------0----------------------------------------------------------|
|-1---------------2--------------2----1----------------------------------------------------------|
|-2-----------2---4-------2h4---------2----------------------------------------------------------|
|-2-----2h4-------2-------------------2----------------------------------------------------------|
|-0-----------------------------------0----------------------------------------------------------|
Comments