Tragically Hip - 38 Years Old Chords & Tabs

 

38 Years Old Chords & Tabs

Tragically Hip Chords & Tabs

Version: 3 Type: Tab 0 ratings
1 star 2 stars 3 stars 4 stars 5 stars
comments

38 Years Old Tab

   
Band: The Tragically Hip
Song: 38 Years Old
Album: Up To Here

Tabbed By Patrick Tarnowski

The Main Riff of the song 

is
 Am   (Am add1)  C   G
|------1---------0---3----------------| Listen for to the song for 
|1-----1---------1---0----------------| Strumming Pattern
|2-----2---------0---0----------------|
|2-----2---------2---0----------------|
|----------------3---2----------------|
|----------------X---3----------------|



Solo
 

they still stare at their shoes when they pass our place, then this solo begins
[ Tab from: http://www.guitartabs.cc/tabs/t/tragically_hip/38_years_old_tab_ver_3.html ]
|-------10-\12-10-12/14-\12-\10-10-\7-7---------10-----\10-10-9-10-9b10--|
|\12-\12--------------------------------\10-\12----/12-------------------|
|------------------------------------------------------------------------|
|------------------------------------------------------------------------|
|------------------------------------------------------------------------|
|------------------------------------------------------------------------|

|------/14-17-14-12-10-/14------------|----------------------------------|
|10\12--------------------------------|----------------------------------|
|-------------------------------------|----------------------------------|
|-------------------------------------|----------------------------------|
|-------------------------------------|----------------------------------|
|-------------------------------------|----------------------------------|
Comments