Tragically Hip - 38 Years Old Chords & Tabs

 

38 Years Old Chords & Tabs

Tragically Hip Chords & Tabs

Version: 1 Type: Chords 0 ratings
1 star 2 stars 3 stars 4 stars 5 stars
comments

38 Years Old Chords

   
Tragically Hip - 38 years old.




Chords:


  Am    Am/F   C    C/B    G    Asus
E|-0-----1-----0-----0-----3-----0-----|
B|-1-----1-----1-----1-----3-----0-----|
G|-2-----2-----0-----0-----0-----2-----|
D|-2-----2-----2-----0-----0-----2-----|
A|-0-----0-----3-----2-----2-----0-----|
E|-x-----x-----x-----x-----3-----x-----|


Intro:
[ Tab from: http://www.guitartabs.cc/tabs/t/tragically_hip/38_years_old_crd.html ]
E|-0-0-0-0--1-1-1-1--0-0--0-0-0--0-0-0----|Repeat throught the song
B|-1-1-1-1--1-1-1-1--1-1--1-1-1--1-1-1----|
G|-2-2-2-2--2-2-2-2--2-2--0-0-0--0-0-0----|
D|-2-2-2-2--2-2-2-2--2-2--2-2-2--0-0-0----|
A|-0-0-0-0--0-0-0-0--0-0--3-3-3--2-2-2----|
E|-x-x-x-x--x-x-x-x--x-x--x-x-x--x-x-x--3-|

The rest of the chords go in this order for the rest of the song: 

Asus C G Am Asus Am and repeat like that, well its how i play it anyway

email me at cheese_man330@hotmail.com mkay
Comments