Traffic - Paper Sun Chords & Tabs

 

Traffic Chords & Tabs

Version: 1 Type: Tab 0 ratings
1 star 2 stars 3 stars 4 stars 5 stars
comments

Paper Sun Tab

   
#----------------------------------PLEASE NOTE--------------------------------#
#This file is the author's own work and represents their interpretation of the#
#song. You may only use this file for private study, scholarship, or research.#
#-----------------------------------------------------------------------------#
                              "Paper Sun"
                   (Winwood - Capaldi - Wood - Mason)

Intro:

(tabla fill)

sitar arr. for guitar [4X]:

D5
 v   v   v   v     v   v   v   v
-----------------|-----------------
-----------------|-----------------
-----7-----5-----|-4-----2---------
-0---------------|-----------------
-----------------|-----------------
-----------------|-----------------

Chorus:

(guitar and sitar, 2X):
[ Tab from: http://www.guitartabs.cc/tabs/t/traffic/paper_sun_tab.html ]
 Cm                Bb      G         A
 v   v   v   v     v   v   v   v     v   v   v   v     v   v   v   v
-----------------|-----------------|-----------------|-----------------
---------------1-|-3-1-----------3-|-2---------------|-----------------
-------------0---|-----3---0-2-3---|-----------------|-----------------
-------0-1-3-----|-------3---------|-----------------|-----------------
-2-3-2-----------|-----------------|---------0-0---0-|-0-------0-0---0-
-----------------|-----------------|-----------------|-----------------
 A                pa...    per      sun

[repeat intro]




-- another ace 60's tab from Andrew Rogers


=====================================================================================================================


#----------------------------------PLEASE NOTE--------------------------------#
#This file is the author's own work and represents their interpretation of the#
#song. You may only use this file for private study, scholarship, or research.#
#-----------------------------------------------------------------------------#
                       "Shanghai Noodle Factory"
                  (S. Winwood - J. Capaldi - C. Wood)

Intro:

(acoustic guitar; full band enters where indicated by chords):

 D [N.C.]
 v   v   v   v     v   v   v   v
---------2-2-3-5-|---5-7---8-------
-----------------|-----------------
-/-------2-2-4-5-|---5-7---9-------
-----------------|-----------------
-----------------|-----------------
-----------------|-----------------

 D  [N.C.*]        D7     Db7 
 v   v   v   v     v   v   v   v
---------8-8-7---|-5-------4-------
-----------------|-----------------
-/-/-----9-9-8---|-5-------4-------
-----------------|-----------------
-----------------|-----------------
-----------------|-----------------
     
Comments