Traffic - John Barleycorn Must Die Chords & Tabs

 

John Barleycorn Must Die Chords & Tabs

Traffic Chords & Tabs

Version: 2 Type: Tab 0 ratings
1 star 2 stars 3 stars 4 stars 5 stars
comments

John Barleycorn Must Die Tab

   
#----------------------------------PLEASE NOTE--------------------------------#
#This file is the author's own work and represents their interpretation of the#
#song. You may only use this file for private study, scholarship, or research.#
#-----------------------------------------------------------------------------#

Date: Wed, 15 Apr 1998 15:02:08 +0200
From: Antonio / Corrado 
Subject: t/traffic/john_barleycorn.tab

Artist          : Traffic
Title           : John Barleycorn
Transcribed     : caderosa@tin.it
Comments:       : capo on 5th fret
---
Strings: E,A,D,G,B,E
====================

INTRO:

  (D)             (C)         (Em)         (Am)             
   e  s  e  s  e   s  s  e (s) s  s  e (s)  s  s  s  e  s  e
E--------2-------|------------------------|-----------------
B-----------3----|-------1~----------0~---|-------1\-0------
G-----2--------2-|----0----(0)----0----(0)|-------------2---
D--0-------------|------------------------|----2-----------2
A----------------|-3-----------2----------|-0---------------
E----------------|------------------------|-----------------
>                                                            
(Am)
|  s  s  s  e  s  e  (two times)
E-------------------||
B--------1\-0-------||    
G--------------2----||
D-----2-----------2-||
A--0----------------||
E-------------------||

Every strophe:

  (D)            (Am)             (C)         (Em)         (Am)
   e  s  e  s  e   e  s  e  s  e   s  s  e (s) s  s  e (s)  s  s  s  e  s 
E
E--------2-------|---------------|------------------------|-----------------
B-----------3----|-------1-------|-------1~----------0~---|-------1\-0------
G-----2--------2-|----------2----|----0----(0)----0----(0)|-------------2---
D--0-------------|----2--------2-|------------------------|----2-----------2
A----------------|-0-------------|-3-----------2----------|-0---------------
E----------------|---------------|------------------------|-----------------

(Am)
|  s  s  s  e  s  e  then intro.
E-------------------............|| 
B--------1\-0-------............||     
G--------------2----............|| 
D-----2-----------2-............|| 
A--0----------------............||
E-------------------............|| 

[ Tab from: http://www.guitartabs.cc/tabs/t/traffic/john_barleycorn_must_die_tab_ver_2.html ]
=================================================================================================================

"Hole In My Shoe"
                              (Dave Mason)

Intro:

sitar arr. for guitar [3/4, w/snare]:

 v   v   v     v   v   v     v   v   v
-7-----------|-------------|-------------
-------7-----|-9-----------|-7-----------
-------------|-------8-----|-------------
-------------|-------------|-------9-----
-------------|-------------|-------------
-------------|-------------|-------------

sitar arr. for guitar [4/4] [4X; band enters 1st time; flute 2nd]

 B
 v       v       v       v
---------------------------------
---------10-9*---7-------7-------
-8-9-----------------------------
---------------------------------
---------------------------------
---------------------------------
             * omit 1st time during intro

- another ace 60's tab from Andrew Rogers

=================================================================================================================

Forty Thousand Headmen"
                       (S. Winwood - J. Capaldi)

Intro:

acoustic guitar (w/flute):

     v   v   v   v     v   v   v   v
---|-0-7-6-5-3-0-----|-0-7-6-5-353-0---|---|---
-0-|-------------3-0-|--------------(0)|---|---
---|-----------------|-----------------|-%-|-%-
---|-----------------|-----------------|---|---
---|-----------------|-----------------|---|---
---|-----------------|-----------------|---|---
                                     ^ omit last time

Em     Em6/9 Em     Em6/9       [Em6/9: slide 022000 to 044000]
/  /  /  /   /  /  /  /


=====================================================================================================================

Artist: Traffic
Song: Dear mr. Fantasy
Tabbed by: JOHN LEADMAN




Intro:  A   G   D   lick--->into A chord of VERSE 1

lick
e|-----------------------------|   where:
B|-----------------------------|3-3-3 = triplet
G|-----------------------------|b = 1/4 or slight accent bend
D|-----------------0-----------|h = hammer-on
A|----------0---3b---3b--0-----|
E|------0h3--------------------|
3-3-3
note: 
    Chords are played in standard position (A: X02220, G: 320033, D: XX0232)
as you pick arpeggios up and down the strings.  There is also a "tickle" of 
the 3rd fret on the high e string during the D chord (making it Dsus4 for a 
split second) during the verses.  Listen to the song and you'll hear what I
mean. 



Comments