Traditional - Wayfaring Stranger Chords & Tabs

 

Wayfaring Stranger Chords & Tabs

Traditional Chords & Tabs

Version: 1 Type: Tab 0 ratings
1 star 2 stars 3 stars 4 stars 5 stars
comments

Wayfaring Stranger Tab

Song: "The Wayfaring Stranger"
tab by: beachboy83_992000@yahoo.com

Play twice:
[ Tab from: http://www.guitartabs.cc/tabs/t/traditional/wayfaring_stranger_tab.html ]
---------------------------------------------------------------
---------------------------------------------------------------
-------0-2-2--0-2^4-0--------------0-2-2--0-2^4-0--------------
-0-0^2----------------2-0----0-0^2----------------2------------
---------------------------------------------------------------
---------------------------------------------------------------

---------------------------------------------------------------
--0--0--3--5--5---5--3--0--3--0--------------------------------
----------------5------------------------0-2-2-0-2^4-0---------
-----------------------------------0-0^2--------------2--------
---------------------------------------------------------------
---------------------------------------------------------------

This is also the theme song to the movie Hard Times.
Have Fun!!
Comments