Traditional - Sailors Hornpipe The Mandolin Tab Chords & Tabs

 

Sailors Hornpipe The Mandolin Tab Chords & Tabs

Traditional Chords & Tabs

Version: 1 Type: Tab 0 ratings
1 star 2 stars 3 stars 4 stars 5 stars
comments

Sailors Hornpipe The Mandolin Tab Tab

   
Sailor's Hornpipe MANDOLIN tab - traditional
============================================

Tabbed by Daniel Clarke 2004
	Email: tabs[at]danielclarke[dot]com

Grateful for corrections/suggestions/comments

This is a traditional piece of music, it's the cool
part at the end of Mike Oldfield's Tubular Bells Part II.

It's also the tune that they play at the Last Night Of The 
Proms, and everyone joins in with their own "parp parp" horns!
(The last two notes in Riffs C and E are where they sound their horns).

You can add the bottom G to the last two notes in Riffs C and E for effect,
you should probably do this only on the second play of each riff.


The pipe marks (|) are NOT intended to mark musical bars, but
to mark distinct phrases or sections; I'm breaking it up into 
pieces to make it easier to learn.


By the way, this is technically not The Sailor's Hornpipe,
it's actually called something else, BUT it's the one we 
all KNOW AS The Sailor's Hornpipe.
[ Tab from: http://www.guitartabs.cc/tabs/t/traditional/sailors_hornpipe_the_mandolin_tab_tab.html ]


It's for MANDOLIN.

 


Tune progression
----------------
Part one is
	A B C 
	A B C

Part two is
	D B E 
	D B E
	
Play parts one and then two and repeat, 
speeding up till your fingers hurt!


The Riffs
---------


Riff A:

E--3-2-3----------|-----------3-3-|--5-4-5-----|--5-3-2-0---|
A-----------------|---5-3-2-5-----|--------0-0-|----------5-|
D----------5---5--|---------------|------------|------------|
G-----------------|---------------|------------|------------|




Riff B (the fill):

E----0-2-3-2-0---|--0-------|---------|----------|
A--5-----------5-|----5-3-2-|-3-2-0---|-0--------|
D----------------|----------|-------5-|---5-4-2--|
G----------------|----------|---------|----------|



Riff C:

E------------------------|
A---------0-3-2-0-2------|
D-0-2-4-5------------5-5-|  
G--------------------0-0-|  
Comments