Tracy Chapman - Unsung Psalm Chords & Tabs

 

Unsung Psalm Chords & Tabs

Tracy Chapman Chords & Tabs

Version: 1 Type: Tab 0 ratings
1 star 2 stars 3 stars 4 stars 5 stars
comments

Unsung Psalm Tab

   
Name: PEDRO MIGUEL

Tabs: ARTIST: TRACY CHAPMAN
ALBUM: TELLING STORIES
SONG: UNSUNG PSALM
TABBED BY: KING OF PAIN

INTRO/VERSE:
                               H  P
e----------------------------2--3--2-----
B---------1----------7------3--------3---
G-------0------------7----2-----------2--
D-----2--------------7--0----------------
A---3---------2-3-5--5-------------------
E----------------------------------------

PASSAGEM: (IM NOT SURE ABOUT IT, BUT...)
[ Tab from: http://www.guitartabs.cc/tabs/t/tracy_chapman/unsung_psalm_tab.html ]
e---------0----------------2---------
B---------0-------3--------3---------
G-------0---------3--------2---------
D-----2---------3----------0---------
A---2---------2----------------------
E------------------------------------

BRIDGE:
          H  P            
e--------2--3--0-----------H-------2--3--
B------3-----------------1---3-----3-----
G----2-----------------0-------0---2-----
D--0-----------------2-------------0-----
A------------------3---------------------
E----------------------------------------


FOR ANY CORRECTIONS WRITE TO:
ROP62678@MAIL.TELEPAC.PT
Comments