Tracy Chapman - This Time Chords & Tabs

 

This Time Chords & Tabs

Tracy Chapman Chords & Tabs

Version: 1 Type: Tab 0 ratings
1 star 2 stars 3 stars 4 stars 5 stars
comments

This Time Tab

This is how i'v learnd it ...

e|-----------------------------------------------------------------------|
B|---------------------------3--------------------------------5----------|
G|--------------------0----------------------------------0---------------|
D|---------------4----------------------------------4--------------------|
A|--------0-3-2--------------3---------------0-3-2------------5----------|
E|--0-3-2------------------------------0-2-3-----------------------------|

e|-----------------------------------------------------------------------|
B|---------------------------7--8--7---5--5-------3---3-------3---3------|
G|--------------------0---------------------0-------0---0-------0---0----|
D|---------------4----------------------------0-----------2-----------2--|
A|--------0-3-2--------------7---------5----------3---3-------3---3------|
E|--0-3-2----------------------------------------------------------------|
[ Tab from: http://www.guitartabs.cc/tabs/t/tracy_chapman/this_time_tab.html ]
e|--------------------------------------------------7------------5-------|
B|--7--8--7--5--5-------3---3-------3---3---------7-----8------5-----5---|
G|-----------------0------0---0-------0---0------------------------------|
D|-------------------0----------2-----------2----------------------------|
A|--7--------5----------3---3-------3---3---------7------------5---------|
E|-----------------------------------------------------------------------|

e|------------------------------7------------5------------------------------|
B|--3---3-------3---3---------7-----8------5-----5---3---3-------3---3------|
G|----0---0-------0---0--------------------------------0---0-------0---0----|
D|----------2-----------2------------------------------------2-----------2--|
A|--3---3-------3---3---------7------------5---------3---3-------3---3------|
E|--------------------------------------------------------------------------|

e|-------------------------|
B|-------------------------|
G|-------------------------|
D|----2-----2-----2-----2--|
A|--3-----3-----3-----3----|
E|-------------------------|
Comments