Tracy Chapman - Telling Stories Chords & Tabs

 

Telling Stories Chords & Tabs

Tracy Chapman Chords & Tabs

Version: 1 Type: Tab 0 ratings
1 star 2 stars 3 stars 4 stars 5 stars
comments

Telling Stories Tab

   
Name: pedro miguel

Tabs: artist: Tracy Chapman
Album: Telling Stories
Song: Telling Stories
tabbed by: King of Pain


Intro
e---------------------------
B---------------------------
G---------------------------
D---------------------------
A------7--7------7--7-------
E--0-0-------0-0------------
[ Tab from: http://www.guitartabs.cc/tabs/t/tracy_chapman/telling_stories_tab.html ]
Verso:
  E   C   G   D/F#
e-0---0---3---X------
B-0---1---3---3------
G-0---0---0---2------
D-2---2---0---0------
A-2---3---2---0------
E-0---X---3---3------

REFRÃO:
  D   Em  C   G
e-3---0---0---3------
B-2---0---1---3------
G-3---0---0---0------
D-0---2---2---0------
A-0---2---3---2------
E-0---0---X---3------

SOON I´LL SEND THE SOLO PART.
FOR ANY CORRECTIONS WRITE TO: ROP62678@MAIL.TELEPAC.PT
Comments