Tracy Chapman - Fast Car Chords & Tabs

 

Fast Car Chords & Tabs

Tracy Chapman Chords & Tabs

Version: 6 Type: Tab 0 ratings
1 star 2 stars 3 stars 4 stars 5 stars
comments

Fast Car Tab

Tuning:standard


e|------------0---0--------5--4--4/5p0*------------|x2
B|-------------------------------------------------|
G|---6h7--6----------------------------------------|
D|---7----7---7-----7------------------------------|
A|-------------------------------------------------|
E|-------------------------------------------------|

[ Tab from: http://www.guitartabs.cc/tabs/t/tracy_chapman/fast_car_tab_ver_6.html ]
e|------------0---0--------5--7--5--4--5--4--------|
B|-------------------------------------------------|
G|---6h7--6----------------------------------------|
D|---7----7---7-----7------------------------------|
A|-------------------------------------------------|
E|-------------------------------------------------|

*It's quick slide to 5 then lift off right away, and it's played kind of quiet
 So I guess it could also be written as 4/0
 It also sounds ok to just play 5-4-4-0
Comments