Toy Dolls - Rupert The Bear Chords & Tabs

 

Rupert The Bear Chords & Tabs

Toy Dolls Chords & Tabs

Version: 1 Type: Bass Tab 0 ratings
1 star 2 stars 3 stars 4 stars 5 stars
comments

Rupert The Bear Bass Tab

   
rupert the bear - toy dolls
-------------------------------------------------------------------------------

Tabbed By : jonas schlechtweg
e-mail: jonasschlechtweg@gmail.com

Tuning: standard

first verse

G|-----------------------------------------------------------------|
D|-----------------------------------------------------------------|
A|-----------3-3---5-5---------------------------------------------| x 3
E|--3-3-3-3--------------------------------------------------------|

G|----------------------------------------------------------------------|
D|----------------------------------------------------------------------|
A|----------------------------------------------------------------| x 1-|
E|--3-3-3-3--3-3-3-3----------------------------------------------------|

 prechorus

G|-----------------------------------------------------------------------|
D|-----------------------------------------------------------------------|
A|-------------6-6-6-6-----------------------6-6-6-6--5-5-5-5-5-5-5-5----|
E|-----6-6-6-6----------6-6-6-6-6---6-6-6-6------------------------------|

chorus
G|----------------------------------------------------------------------|
D|----------------------------------------------------------------------|
A|-------3----3-3-3-3--5-5-5-5-----------3------3-3-3-3---5-5-5-5-5-5-5-|
E|--3-3----3----------------------3---3-----3---------------------------|

G|-------------------------------------------------------------------------|
D|-------------------------------------------------------------------------|
A|-------3-~-5~--------3-~--5-~--------------------------------------------|
E|--3-~-----------3-~------------------------------------------------------|

second verse

G|--------------------------------------------------------------------------|
D|--------------------------------------------------------------------------|
A|-----------3-3---5-5--------------------------------------------------x 3-|
E|--3-3-3-3-----------------------------------------------------------------|

G|----------------------------------------------------------------------|
D|----------------------------------------------------------------------|
A|----------------------------------------------------------------------|x 1
E|--3-3-3-3--3-3-3-3----------------------------------------------------|


prechorus

G|--------------------------------------------------------------------|
D|--------------------------------------------------------------------|
A|-------------6-6-6-6-----------------------6-6-6-6--5-5-5-5-5-5-5-5-|
E|-----6-6-6-6----------6-6-6-6-6---6-6-6-6---------------------------|
[ Tab from: http://www.guitartabs.cc/tabs/t/toy_dolls/rupert_the_bear_btab.html ]
chorus
G|---------------------------------------------------------------------------|
D|---------------------------------------------------------------------------|
A|-------3----3-3-3-3--5-5-5-5-----------3------3-3-3-3---5-5-5-5-5-5-5-5-5--|
E|--3-3----3----------------------3---3-----3--------------------------------|

G|--------------------------------------------------------------------------|
D|--------------------------------------------------------------------------|
A|-------4-~-6~--------4-~--6-~---------------------------------------------|
E|--4-~-----------4-~-------------------------------------------------------|


verse 3

G|----------------------------------------------------------------------|
D|----------------------------------------------------------------------|
A|---------4-4---6-6----------------------------------------------------| x3
E|-4-4-4-4--------------------------------------------------------------|

G|------------------------------------------------------------------------|
D|------------------------------------------------------------------------|
A|------------------------------------------------------------------------|
E|-4-4-4-4-4-4-4-4-4------------------------------------------------------|

prechorus

G|-----------------------------------------------------------------------------|
D|-----------------------------------------------------------------------------|
A|--------7-7-7-7---------------------7-7-7-7---6-6-6-6-6-6-6-6----------------|
E|-7-7-7-7---------7-7-7-7-----7-7-7-7-----------------------------------------|

chorus

G|----------------------------------------------------------------------------|
D|----------------------------------------------------------------------------|x4
A|-----4------4-4-4-4--6-6-6-6-------------4----4-4-4-4--6-6-6-6-6-6----------|
E|-4-4----4---------------------4--4----------4-------------------------------|


outro
						4 thime just play tis note
G|------------------------------------------|-------------------------------|
D|------------------------------------------|-------------------------------|
A|---------4-4---6-6------------------------|-------------------------------| x4
E|-4-4-4-4----------------------------------|-----4-------------------------|


end
G|--------------------------------------------------------------------|
D|--------------------------------------------------------------------|
A|--------------------------------------------------------------------|
E|----4-/-1-----------------------------------------------------------|


questions mail me :) and rate pls

| /  slide up
| \  slide down
| h  hammer-on
| p  pull-off
| ~  vibrato
| +  harmonic
| x  Mute note
========================================================================
Comments