Toy Dolls - Nellie The Elephant Chords & Tabs

 

Nellie The Elephant Chords & Tabs

Toy Dolls Chords & Tabs

Version: 1 Type: Bass Tab 0 ratings
1 star 2 stars 3 stars 4 stars 5 stars
comments

Nellie The Elephant Bass Tab

nellie the elephant by the toy dolls

tabbed by: jonas schlechtweg
e-mail: jonasschlechtweg@hotmail.com

tuning: standard

Q=150
 4/4
  Gtr I
|-------------------------------------------------------------------|
|----------------------------------7-7-7-7--------------------------|
|-7-7-7-7-7-7-7-7---------7-7-7-7----------7-7-7-7--9-9-9-9---------|
|-----------------5-5-5-5-----------------------------------7-7-7-7-|


|---------------------------------------------------------------|
|-----------------------------------7-7-7-7---------------------|
|-7-7-7-7-7-7-7-7----------7-7-7-7----------7-7-7-7--9-------7--|
|------------------5-5-5-5-------------------------------7------|


||------------------------------------------
||o-------------------------9---------------
||o-7---7--7-----------9---------9----------
||----7------2h4p2S=7----9----2-----9--7----


|----------------------------------------------------|
|----------------------------------9-----------------|
|-7-----7-----7-------------9------------9-----------|
|----7-----------2h4p2S7--------9-----2------9--7----|


|-----|
|-----|
|-----|
|-----|


|--------------------------------------------------------------------|
|-----------------------------------7-7-7-7--------------------------|
|-7-7-7-7-7-7-7-7----------7-7-7-7----------7-7-7-7--9-9-9-9---------|
|------------------5-5-5-5-----------------------------------7-7-7-7-|


|--------------------------------------------------------------|
|------------------------------------7-7-7-7-------------------|
|-7-7-7-7-7-7-7-7-----------7-7-7-7----------7-7-7-7--9---7----|
|-------------------5-5-5-5-----------------------------7------|


|------------------------|
|------------------------|
|-3-3-3-3-3-3-3-3-3-3----|
|------------------------|

[ Tab from: http://www.guitartabs.cc/tabs/t/toy_dolls/nellie_the_elephant_btab.html ]
|------------------------------------------------------------------------|
|-----------------------------------8-8-8-8------------------------------|
|-8-8-8-8-8-8-8-8----------8-8-8-8----------8-8-8-8--10-10-10-10---------|
|------------------6-6-6-6---------------------------------------8-8-8-8-|


|--------------------------------------------------------------|
|-----------------------------------8-8-8-8--------------------|
|-8-8-8-8-8-8-8-8----------8-8-8-8----------8-8-8-8--10---8----|
|------------------6-6-6-6------------------------------8------|


|-3-3-3-3---------3-3-3-3----------------------------------------|
|---------3-3-3-3---------3-3-3-3--------------------------------|
|-----------------------------------------3-3-3-3---------3------|
|---------------------------------3-3-3-3---------3-3-3-3--------|


|-----|
|-----|
|-----|
|-----|


|------------------------------------------------------------------------|
|-----------------------------------8-8-8-8------------------------------|
|-8-8-8-8-8-8-8-8----------8-8-8-8----------8-8-8-8--10-10-10-10---------|
|------------------6-6-6-6---------------------------------------8-8-8-8-|


|--------------------------------------------------------------|
|-----------------------------------8-8-8-8--------------------|
|-8-8-8-8-8-8-8-8----------8-8-8-8----------8-8-8-8--10---8----|
|------------------6-6-6-6------------------------------8------|


|------------------|
|-3--3--3-3-3-3----|
|------------------|
|------------------|


|------------------------------------------------------------------------|
|-----------------------------------8-8-8-8------------------------------|
|-8-8-8-8-8-8-8-8----------8-8-8-8----------8-8-8-8--10-10-10-10---------|
|------------------6-6-6-6---------------------------------------8-8-8-8-|


|------------------------------------------------------------------|
|-----------------------------------8-8-8-8------------------------|
|-8-8-8-8-8-8-8-8----------8-8-8-8----------8-8-8-8--10---19--20---|
|------------------6-6-6-6-----------------------------------------|
Comments