Toy Dolls - Glenda And The Test Tube Baby Chords & Tabs

 

Glenda And The Test Tube Baby Chords & Tabs

Toy Dolls Chords & Tabs

Version: 1 Type: Tab 0 ratings
1 star 2 stars 3 stars 4 stars 5 stars
comments

Glenda And The Test Tube Baby Tab

   
-------------------------------------------------------------------------------
		     Glenda and the Test Tube Baby - Toy Dolls
-------------------------------------------------------------------------------
Tabbed by: Jian Jeng
Email:

Tuning: E A D G B E
[ Tab from: http://www.guitartabs.cc/tabs/t/toy_dolls/glenda_and_the_test_tube_baby_tab.html ]
e|---------------------------------------------------------------------------|
B|---------------------------------------------------------------------------|
G|---------------------------------------------14-------------------16----16-|
D|---------------------------17-17-17-16-17-16----17-16-14----17-17----17----|
A|------------------14-17^17-------------------------------17----------------|
E|15-15-17-15-17-15----------------------------------------------------------|

e|------------15-15-15-14-15-14-15b------------------------------------------|
B|---15-15^15----------------------------------------------------------------|
G|---------------------------------------------------------------------------|
D|17-------------------------------------------------------------------------|
A|---------------------------------------------------------------------------|
E|---------------------------------------------------------------------------|
Comments