Toy Dolls - Dig That Groove Baby Chords & Tabs

 

Dig That Groove Baby Chords & Tabs

Toy Dolls Chords & Tabs

Version: 1 Type: Tab 0 ratings
1 star 2 stars 3 stars 4 stars 5 stars
comments

Dig That Groove Baby Tab

---5-5---5-5---------------------------------------------------------------|
---5-5---5-5-8p5-7p5-------------5--5--------------------------------------|
--b7-7--b7-7-----------8p5-7p5-6-------------------------------------------|
------------------------------------7--------------------------------------|
----------------------------------------7----------------------------------|
---------------------------------------------------------------------------|
[ Tab from: http://www.guitartabs.cc/tabs/t/toy_dolls/dig_that_groove_baby_tab.html ]
-----------------------------------------------------------------------------|
----8-7-5---------------------7-9--------------------------------------------|
----------7------------------8---9-------------------------------------------|
----------------5-4---------9------------------------------------------------|
--------------------7-5------------------------------------------------------|
-----------------------------------------------------------------------------|

----------------------------------------------------------------------------|
----------------------------------------------------------------------------|
----------------------------------------------------------------------------|
-----------------------7-6-5-4----------------------------------------------|
--------------4-5-6-7----------7--------------------------------------------|
----4-55-4-5----------------------------------------------------------------|

---------------------------------------------------------------------------|
----------------------------------7/-9-10!---------------------------------|
-4-------7-6---------------6-9---8/-9-11!----------------------------------|
----7-4-------9-7-6-7-6-------7-9/10-12!-----------------------------------|
---------------------------------------------------------------------------|
---------------------------------------------------------------------------|
Comments