Towers Of London - F**k It Up Chords & Tabs

 

F**k It Up Chords & Tabs

Towers Of London Chords & Tabs

Version: 1 Type: Bass Tab 1 rating
1 star 2 stars 3 stars 4 stars 5 stars
comments

F**k It Up Bass Tab

   
Standard tuning

Listen to the song to get the playing pattern 

Intro and verse:

G|--------------------------------
D|---------------------0-0-0-0-0-0
A|-------------2-2-3-3------------            
E|-3-3-3-3-3-3--------------------

G|----------------------------------
D|0-0-0-0-0-0-----------------------
A|-------------3-3-2-2--------------          
E|----------------------3-3-3-3-3-3-

Play all through song until chorus

chorus
[ Tab from: http://www.guitartabs.cc/tabs/t/towers_of_london/fk_it_up_btab.html ]
G|-------------------------------------------------------
D|-------------------------------------------------------
A|-------------------------------------------------------
E|-3-3-3-3-3-3-3-3-3-3-3-3-3-3-3-3-3-3-3-3-3-3-3-3-3-3-3-

G|-------------------------------------------------
D|-------------------------------------------------
A|-------------------------------------------------
E|-3-3-3-3-3-3-0-0-0-0-0-0-3-3-3-3-3-3-0-0-0-0-0-0-

Bass solo:

Same as intro

ontro:

Same as Intro

At the end Slide down so

G|---
D|---
A|---
E|-3\-

Simple song to play!
 
Comments