Tourniquet - Where Moth And Rust Destroy Chords & Tabs

 

Where Moth And Rust Destroy Chords & Tabs

Tourniquet Chords & Tabs

Version: 1 Type: Tab 0 ratings
1 star 2 stars 3 stars 4 stars 5 stars
comments

Where Moth And Rust Destroy Tab

"Where Moth and Rust Destroy"
Album: "Where Moth and Rust Destroy"
Artist: Tourniquet
Words and Music by Ted Kirkpatrick
copyright 2003 Metal Blade Records Inc.
Transcribed by Corey Bock
corey@optikskate.com


  Intro

  Gtr 1
||------------------------------------------------------||
||------------------------------------------------------||
||---------------5-------------------------4-----------*||
||--2------4--5--5------4--5--5------4--5--4-----/5--4-*||
||--2------------3------------5------------2------------||
||--0-------------------------3-------------------------||
||                                                      || 
|| Gtr II (2nd time)                                    ||  
||------------------------------------------------------||
||------------------------------------------------------||
||*-----------4--5---------4-------------4--------4--2-*||
||*-/5-----7------------7-----5-------7----4-----------*||
||------------------------------------------------------||
||------------------------------------------------------||


  Gtr. 1
||-----------------------------------------------------------|
||-----------------------------------------------------------|
||-------------------------2-4--5-------5-------5-------2-4--|
||--2-------2-------2------4-5--5-------5-------5-------4-5--|
||--2-------2-------2-----------3--3-3--3--3-3--3--3-3-------|
||--0--0-0--0--0-0--0--0-0-----------------------------------|
||                                                           | 
||                                                           | 
|| Gtr 2. (Solo)                                             | 
||--/7--------------------------/8----8~---------------------|
||-------------8-p-7-7~-----8--------------------------------|
||-----------------------------------------------------------|
||-----------------------------------------------------------|
||-----------------------------------------------------------|
||-----------------------------------------------------------|

  Gtr. 1
|------------------------------------------------------------|
|------------------------------------------------------------|
|--------------------------2-4--4-------4-------4-------2-4--|
|---5-------5-------5------4-5--4-------4-------4-------4-5--|
|---5-------5-------5-----------2--2-2--2--2-2--2--2-2-------|
|---3--3-3--3--3-3--3--3-3-----------------------------------|
|                                                            | 
|                                                            | 
|  Gtr. 2                                                    | 
|---/7-------------------------------------------------8-7\5-|
|------8-p-7-7~---8-/7-5-5h7p5\4-------------------7-8-------|
|-----------------------------------4-5-5-4h5p4-8h9----------|
|--------------------------------4-5-------------------------|
|------------------------------------------------------------|
|------------------------------------------------------------|


  Gtr. 1
|------------------------------------------------------------|
|------------------------------------------------------------|
|--------------------------2-4--5-------5-------5-------2-4--|
|---2-------2-------2------4-5--5-------5-------5-------4-5--|
|---2-------2-------2-----------3--3-3--3--3-3--3--3-3-------|
|---0--0-0--0--0-0--0--0-0-----------------------------------|
|                                                            | 
|  Gtr 2.                                                    | 
|--/7---------------------------/8--8h10p8\7-8p7h8~----------|
|------------8p7-7-----------8-------------------------------|
|------------------------------------------------------------|
|------------------------------------------------------------|
|------------------------------------------------------------|
|------------------------------------------------------------|
[ Tab from: http://www.guitartabs.cc/tabs/t/tourniquet/where_moth_and_rust_destroy_tab.html ]
  Gtr. 1
|---------------------------------------------------------------------|
|---------------------------------------------------------------------|
|--------------------------2-4--4-------4-------4--------2-------4----|
|---5-------5-------5------4-5--4-------4-------4--------4-------5----|
|---5-------5-------5-----------2--2-2--2--2-2--2--2-2----------------|
|---3--3-3--3--3-3--3--3-3--------------------------------------------|
|                                                                     | 
|                                                                     | 
|-----------------------------------------------------14-14b(15)r14-11|
|--------------------------------------------------14-----------------|
|-/16-------------------------------------------15--------------------|
|-----17p16-16~--17-16-\14\13----------------16-----------------------|
|---------------------------------------13-16-------------------------|
|-----------------------------/14~15p14-------------------------------|
                            gradually slide up

  Gtr. 1
|-----------------------------------------------------|
|-----------------------------------------------------|
|-----------------------------------------------------|
|--2--------------------------------------------------|
|--2--------------------------------------------------|
|--0--------------------------------------------------|
|                                                     | 
| Gtr. 2                                              | 
|-12b(14)r12-11---------------------------------------|
|--------------12-------------------------------------|
|-----------------11h12-------------------------------|
|-----------------------14p13-------12-11---------14~-|
|-----------------------------15-14------14-13-14-----|
|-----------------------------------------------------|


  Verse

||---------------------------------------------------------------------||
||---------------------------------------------------------------------||
||*-----------------4-----------------5-5-5-5-5/7\5-4-----------------*||
||*-2---2---4---5-------5---4---2-----5-5-5-5-5/7\5-4-----------------*||
||--2---------------------------------3-3-3-3-3/5\3-2---2-2-3-2--------||
||--0-0---0---0---0---0---0---0---0-----------------------------3-2-0--||


  Chorus
||---------------------------------------------------------------------------|
||---------------------------------------------------------------------------|
||*--------------------------------------5----------5----------5-------------|
||*-2----------2----------2---------4-5--5----------5----------5---------4-5-|
||--2----------2----------2--------------3---3--3---3---3--3---3---3--3------|
||--0---0--0---0---0--0---0---0--0-------------------------------------------|


|---------------------------------------------------------------------------||
|---------------------------------------------------------------------------||
|--------------------------------------4----------4----------4-------------*||
|-5----------5----------5---------4-5--4----------4----------4---------5-4-*||
|-5----------5----------5--------------2---2--2---2---2--2---2---2--2-------||
|-3---3--3---3---3--3---3---3--3--------------------------------------------||


  (3:05)   "Choose, you must choose..."
||--------------------------------------------------------------------------------|
||--------------------------------------------------------------------------------|
||*-------------3-3-------------3-3------------3-3--9-9-9/12-12-12\11-11-11\7-7-7-|
||*-2-----------3-3-2-----------3-3-2----------3-3--------------------------------|
||--2-----------1-1-2-----------1-1-2----------1-1--7-7-7/10-10-10\-9--9--9\5-5-5-|
||--0-000000000-----0-000000000-----0-00000000------------------------------------|

|------------------------------------||
|------------------------------------||
|-/10-10-10-\9-9-9\-5-5-5-\4-4-4----*||
|-----------------------------------*||
|-/-8--8--8-\7-7-7\-3-3-3-\2-2-2-----||
|------------------------------------||

  (3:45)                                  3x	
||----------------------------------------||-------------------------|
||----------------------------------------||-------------------------|
||*--------------------------------------*||-------------------------|
||*--2--------2----------------2------22-*||--2----------2-----------|
||---2--2-2-2-2--2-2-2-2-2-2-2-2--2-2-22--||--2--2-2-2-2-2-0-0-0-14\-|
||---0--0-0-0-0--0-0-0-0-0-0-0-0--0-0-00--||--0--0-0-0-0-0-0-0-0-----|
     . . .    . . . . . . .    . . 

  (4:01)
|----------------------------------------------------------------------------------|
|----------------------------------------------------------------------------------|
|--------------------------------------------------------------------------5-4-----|
|-2----------------------5\4-------3\2----------------------------5-4--7-5---------|
|-2---------------7\5-6--------5\3--------2---------------7-5-6--------------------|
|-0--0-0--/8-7-0--------0----0------------0--0-0--/8-7-0--------0-----0------------|
     . .       .        .    .               . .       .        .     .
Comments