Tourist - Shallow Chords & Tabs

 

Shallow Chords & Tabs

Tourist Chords & Tabs

Version: 1 Type: Tab 0 ratings
1 star 2 stars 3 stars 4 stars 5 stars
comments

Shallow Tab

   
Tourist - Shallow

Chords
======

  C#5	C#/A	B
e--X-----X------X--
B--X-----X------X--
G--6-----6------8--
D--6-----6------9--
A--4-----X------9--
E--X-----5------7--



Intro
=====

C#5	C#/A	C#5	C#5

C#/A	C#/A	B	B


Same over verse


Chorus
======

C#(normal chord)	E	B	F#

play four times


Bridge
======

[ Tab from: http://www.guitartabs.cc/tabs/t/tourist/shallow_tab.html ]
Guitar 1
e--X--X--X--X--X--X--X--X--X--X--X--X--X--X--X--X--X---X---X---X---X---|
B--X--X--X--X--X--X--X--X--X--X--X--X--X--X--X--X--X---X---X---X---X---|
G--6--6--6--6--6--6--9--8--11-11-11-11-11-11-11-11-12--12--12--12--12--|
D--6--6--6--6--6--6--9--8--11-11-11-11-11-11-11-11-12--12--12--12--12--|
A--4--4--4--4--4--4--7--6--9--9--9--9--9--9--9--9--10--10--10--10--10--|
E--X--X--X--X--X--X--X--X--X--X--X--X--X--X--X--X--X---X---X---X---X---|


Guitar 2
e--X--X--X--X--X--X--X--X--X--X--X--X--X--X--X--X--X--X---X---X---X--X--|
B--X--X--X--X--X--X--X--X--X--X--X--X--X--X--X--X--X--X---X---X---X--X--|
G--6--6--6--6--6--6--X--X--X--X--X--X--X--X--X--X--X--X--X--X--X--X--X--|
D--6--6--6--6--6--6--6--4--7--7--7--7--7--7--7--7--4--4--4--4--4--4--4--|
A--4--4--4--4--4--4--6--4--7--7--7--7--7--7--7--7--4--4--4--4--4--4--4--|
E--X--X--X--X--X--X--4--2--5--5--5--5--5--5--5--2--2--2--2--2--2--2--2--|

Play twice, then solo

Tabbed by Jimmy xxx
Comments