Toumbev Martin And Daniel Felsky - Hobos Anotherday Chords & Tabs

 

Hobos Anotherday Chords & Tabs

Toumbev Martin And Daniel Felsky Chords & Tabs

Version: 1 Type: Tab 0 ratings
1 star 2 stars 3 stars 4 stars 5 stars
comments

Hobos Anotherday Tab

   
Hobos Anotherday

   e-          D
Ho-bos…… Anotherday…..

  N/C         e-       D               e-          D
I saaaay….. Hobos anotherday,  I say hobos anotherday.

  e-          D          e-           D
Hobos anotherday, I say hobos anotherday…..



Solo #1

|-------------------------------------------------------------------------------------
|----4--5--4----5--4---5---0------------------------------------------------------
|---------------------------------2--------------------------------------------------
|-------------------------------------------------------------------------------------
|-------------------------------------------------------------------------------------
|-----------------------------------------0----5---3----0----0----0----0----0-----



   e-          D
Ho-bos…… Anotherday…..

  N/C                 e-       D       e-          D
I saaaay….. Hobos anotherday,  I say hobos anotherday.
[ Tab from: http://www.guitartabs.cc/tabs/t/toumbev_martin_and_daniel_felsky/hobos_anotherday_tab.html ]
  e-          D           e-           D
Hobos anotherday, I say hobos anotherday…..



Solo #2

|----------------------------------------------------------4---5---4----5----0-----
|-------------------------------------------------------------------------------------
|-------------------------------------------------------------------------------------
|-------------------------------------------------------------------------------------
|-------------------------------------------------------------------------------------
|-------0--5---3---0-0-0-0-0-----0--5---3---0-----------------------------------



e-               D
Ho-bos…… Anotherday…..

  N/C        e-       D                 e-          D
I saaaay….. Hobos anotherday,  I say hobos anotherday.

  e-          D          e-           D
Hobos anotherday, I say hobos anotherday…..

          G            e-           DDDDDDDDDD….
I saaaaayyyyyy………… Hobos anotherdaaaaaaaaaaaaaay
Comments