Toto - White Sister Chords & Tabs

 

White Sister Chords & Tabs

Toto Chords & Tabs

Version: 1 Type: Tab 0 ratings
1 star 2 stars 3 stars 4 stars 5 stars
comments

White Sister Tab

   
i want to deticate this song to the best rockband ever
alex

White sister

intro
--------------------------------------------------------|
--------------------------------------------------------|
--5---4---2---------------------------------------------| repeat 3 times
--5---5---2---------------------------------------------|
--------------------------------------------------------|
--------------------------------------------------------|

--------------------------------------------------------|
------------------------3-5-----------------------------|
-5----------------2-5-----------------------------------|
-5-----------2-5----------------------------------------|
--------3-5---------------------------------------------|
--------------------------------------------------------|
am
How can you say you love me
d
When you don't even love yourself
f                                    c
You live your life like a jagged knife
E-|-----------------------------------|
B-|-----------------------------------|
G-|--------------5--------------------|
D-|--------------5--------------------|
A-|-3/5-3-2-0-------------------------|
E-|-----------------------------------|
Just waiting on the shelf
------------------------------------------------------------------|
------------------------------3-5-----------------3-5-------------|
-------------------------2-5------5----------2-5------------------|
---------------------2-5----------5------2-5----------------------|
------------------3-5-----------------3-5-------------------------|
------------------------------------------------------------------|
am
How can you live for tomorrow
d
if you curse the night and day
f                            c
The minutes pass through the hour glass
E-|-----------------------------------|
B-|-----------------------------------|
G-|--------------5--------------------|
D-|--------------5--------------------|
A-|-3/5-3-2-0-------------------------|
E-|-----------------------------------|

As you let them slip away

------------------------------------------------------------------|
------------------------------3-5---------------------------------|
-------------------------2-5----------------2-5-2-----------------|
---------------------2-5----------------2-5-----------------------|
------------------3-5----------------3-5--------------------------|
------------------------------------------------------------------|
(chorus)
g
Do you love me
gb
White sister
f
Do you love me
            gm    am
when I play youre game
g
Do you love me
gb
White sister
f
Do you love me
            d      c
When I call your name

--------------------------------------------------------|
--------------------------------------------------------|
--5---4---2---------------------------------------------| repeat 3 times
--5---5---2---------------------------------------------|
--------------------------------------------------------|
--------------------------------------------------------|
[ Tab from: http://www.guitartabs.cc/tabs/t/toto/white_sister_tab.html ]
--------------------------------------------------------|
------------------------3-5-----------------------------|
-5----------------2-5-----------------------------------|
-5-----------2-5----------------------------------------|
--------3-5---------------------------------------------|
--------------------------------------------------------|
am
How can you touch the sorrow
d
With a leather gloved hand
f                            c
When you summon the winds of anger
E-|-----------------------------------|
B-|-----------------------------------|
G-|--------------5--------------------|
D-|--------------5--------------------|
A-|-3/5-3-2-0-------------------------|
E-|-----------------------------------|
Just as fast as you can
--------------------------------------------------------------------|
------------------------------3-5-----------------3-5---------------|
-------------------------2-5------5----------2-5--------------------|
---------------------2-5----------5------2-5------------------------|
------------------3-5-----------------3-5---------------------------|
--------------------------------------------------------------------|
am
You crucify an orphan
d
With the rainbow in your eyes
f                          c
Then you send out invitations
E-|-----------------------------------|
B-|-----------------------------------|
G-|--------------5--------------------|
D-|--------------5--------------------|
A-|-3/5-3-2-0-------------------------|
E-|-----------------------------------|
And address them with his cries
------------------------------------------------------------------|
------------------------------3-5---------------------------------|
-------------------------2-5----------------2-5-2-----------------|
---------------------2-5----------------2-5-----------------------|
------------------3-5----------------3-5--------------------------|
------------------------------------------------------------------|
(chorus)
g
Do you love me
gb
White sister
f
Do you love me
       gm         am
when I play youre game
g
Do you love me
gb
White sister
f
Do you love me
            d      c
When I call your name

--------------------------------------------------------|
--------------------------------------------------------|
--5---4---2---------------------------------------------| repeat 2 times
--5---5---2---------------------------------------------|
--------------------------------------------------------|
--------------------------------------------------------|

f7            f*7           c7     ab7
I, I don't even know what's right
a7                 f7        f*7       c7     ab7
I can say that you put up some kind of fight
f7
I've been branded
f*7
I've been stranded
c7                                 ab7
I'm so thankful for what I've been handed
           E-|-----------------------------------|
           B-|-----------------------------------|
           G-|-2-0-------------------------------|
           D-|-----3-2-0-------------------------|
           A-|-----------3-2---------------------|
           E-|-----------------------------------|
I wish I could say that you're mine

f*7 c7 c d

Such a card game

[Instrumental brake]

(chorus)
g
Do you love me
gb
White sister
f
Do you love me
       gm         am
when I play youre game
g
Do you love me
gb
White sister
f
Do you love me
            d      c
When I call your name(fade)
Comments