Toto - Rosanna Chords & Tabs

 

Rosanna Chords & Tabs

Toto Chords & Tabs

Version: 2 Type: Tab 0 ratings
1 star 2 stars 3 stars 4 stars 5 stars
comments

Rosanna Tab

Tabbed By Julian Loor
1972 Plymouth Fury III
White Lion & Van Halen---->The best bands of the world

---------------------------------------------------------------------|
--------------------------------------------13-----------------------|
----------------10-10-12-12-12b14r12b14hold----12b14r12-12-10-12-10--|
---------------------------------------------------------------------|
-7/8-8-10-10/12------------------------------------------------------|
---------------------------------------------------------------------|
[ Tab from: http://www.guitartabs.cc/tabs/t/toto/rosanna_tab_ver_2.html ]
-------------------------------------|   
----------------------10-13-10-11-13-|   
-------------10-12-13----------------|   
-------10-12-------------------------|   
-10-12-------------------------------|   
-------------------------------------|

------------------------------------------20--------------|
-18-15-18b20-18-18b20-18--20-18-20b22hold----20b22r20-18--|
----------------------------------------------------------|
----------------------------------------------------------|
----------------------------------------------------------|
----------------------------------------------------------|
Comments