Toto - Rosanna Chords & Tabs

 

Rosanna Chords & Tabs

Toto Chords & Tabs

Version: 1 Type: Bass Tab

Rosanna Bass Tab

-------------------------------------------------------------------------------
			     Rosanna - Toto
-------------------------------------------------------------------------------

Tabbed By : Jelmer Portinga
e-mail: jelmerp@hotmail.com

Tuning: standard

G|---------------------------------------------------------------------------|
D|---------------------------------------------------------------------------|
A|---------------------------------------------------------------------------|
E|-----3333-3*--(x7)-then->--1111-1*---0000-0*---3333-3*---3333-88-----------|

G|---------------------------------------------------------------------------|
D|---------------------------------------------------------------------------|
A|---------------------------6666-6*--5555-5>0-------------------------------|
E|1111-1*--1111-1*--1111-1*--------------------------------------------------|

G|---------------------------------------------------------------------------|
D|---------------------------------------------------------------------------|
A|-----------------------------------------------56--------------------------|
E|33333333-66666666-66661111-33333333-66666666*-----66-11--------------------|

G|---------------------------------------------------------------------------|
D|---------------------------------------------------------------------------|
A|3*--02366-56-----------(x4)------------------------------------------------|
E|-------------66-11---------------------------------------------------------|

G|---------------------------------------------------------------------------|
D|---------------------------------------------------------------------------|
A|---------------------------------------------------------------------------|
E|333*-333*-333*-111*-000*-----333*-333*--88---------------------------------|
[ Tab from: http://www.guitartabs.cc/tabs/t/toto/rosanna_btab.html ]
G|---------------------------------------------------------------------------|
D|---------------------------------------------------------------------------|
A|-----------------------1<6666-6*--5555-5>----------------------------------|
E|1111-1*--1111-1*--1111-----------------------------------------------------|

G|---------------------------------------------------------------------------|
D|---------------------------------------------------------------------------|
A|-----------------------------------------------56--------------------------|
E|33333333-66666666-66661111-33333333-66666666------66-11--------------------|

G|---------------------------------------------------------------------------|
D|---------------------------------------------------------------------------|
A|3*--02366-56-----------(x4)------------------------------------------------|
E|-------------66-11---------------------------------------------------------|

G|---------------------------------------------------------------------------|
D|---------------------------------------------------------------------------|
A|---------------------------------------------------------------------------|
E|333*-333*-333*-111*-000*-----333*-333*--88---------------------------------|

G|---------------------------------------------------------------------------|
D|---------------------------------------------------------------------------|
A|-----------------------1<6666-6*--5555-5>----------------------------------|
E|1111-1*--1111-1*--1111-----------------------------------------------------|

G|---------------------------------------------------------------------------|
D|---------------------------------------------------------------------------|
A|-----------------------------------------------56--------------------------|
E|33333333-66666666-66661111-33333333-66666666------66-11--------------------|

G|------------------------|-----------------------|--------------------------|
D|------------------------|-----------------------|--------------------------|
A|3*--02366-56--------(x4)|3*-------56--------(x4)|--------------------------|
E|-------------66-11------|------------66-11------|33333*33333*33333*--etc.--|