Toto - Ill Be Over You Chords & Tabs

 

Ill Be Over You Chords & Tabs

Toto Chords & Tabs

Version: 1 Type: Tab 0 ratings
1 star 2 stars 3 stars 4 stars 5 stars
comments

Ill Be Over You Tab

   
#----------------------PLEASE NOTE------------------------#
# This file is the author's own work and represents their #
# interpretation of the song. You may only use this file  #
#      for private study, scholarship, or research.       #
#---------------------------------------------------------#


 Song Title: I'll Be Over You
 Artist: Toto
 Transcribed by: geoffrey b oblimar

 This tasty solo gave an extra spice to the song.
 So here it is, enjoy...

 *To get a good lead tone you want a bit of distortion,
  some chorus and a touch reverb.


 solo:
     Fm/Ab               G4            Ebm/Gb                  F4

 e|--sl/13--13-13-13-11--10-10~~sl\----8-10-10/11-11-11-11-10--8-8~--|
 B|------------------------------------------------------------------|
 G|------------------------------------------------------------------|
 D|------------------------------------------------------------------|
 A|------------------------------------------------------------------|
 E|------------------------------------------------------------------|
[ Tab from: http://www.guitartabs.cc/tabs/t/toto/ill_be_over_you_tab.html ]
     Cm7                  Bb/D               Eb7
                          AH(slight)
   -----------------------11b13-11-10-8-------------------------|
   --sl/11-10-8-10-10/11----------------11~~-11-13-13/15~~~sl\--|
   -------------------------------------------------------------|
   -------------------------------------------------------------|
   -------------------------------------------------------------|
   -------------------------------------------------------------|

  outro:
                                                  PM(slight).  .  .  .
 e|---------------------------------------------------------------------|
 B|--15b16r15b16--15-11-13---15p13p11h13~~sl\---------------------------|
 G|--------------------------------------------------12----14-12-16-14--|
 D|--------------------------------------------sl/14----14--------------|
 A|---------------------------------------------------------------------|
 E|---------------------------------------------------------------------|


   --------------------|--------------13-15--18-17--13--13b15~~~sl\--|
   --13b15~~~~sl\------|--------13-15--------------------------------|
   --------------------|---------------------------------------------|
   --------------------|-----15--------------------------------------|
   --------------------|---------------------------------------------|
   --------------------|---------------------------------------------|

 Legend:
  AH  -artificial harmonic
  b   -bend
  r   -release
  PM  -palm muting
  h   -hammer-on
  p   -pull-off
  sl/ -slide, only the first note is struck
  /   -slide, both notes are struck
  ~   -vibrato


 Comments? e-mail: gboblimar@yahoo.com
Comments