Toto - Hold The Line Chords & Tabs

 

Hold The Line Chords & Tabs

Toto Chords & Tabs

Version: 3 Type: Bass Tab 0 ratings
1 star 2 stars 3 stars 4 stars 5 stars
comments

Hold The Line Bass Tab

   
 
Hold the Line
Toto
tabbed by saturns_bassman

      hey i tabbed the other version but changed the name and just some things on the
tab so hope you enjoy!!


Intro
G|-----------------------------------------------------------|
D|---4--------------------4----------------------------------|
A|-------4--5--5--7-----------4--5--5--7-----7---4---3---2---|
E|-----------------------------------------------------------|

   Riff A (X2)
G|-----------------------------------------------------------|
D|---------------------------4-------------4-----------------|
A|---2---3---4-------4---7---------4---7---------4---3---2---|
E|-----------------------------------------------------------|

   Riff B (X2)
G|-----------------------------------------------------------|
D|-----------------------------------------------------------|
A|---2---3---4-------2---4---5-----4---5---7-----4---3---2---|
E|-----------------------------------------------------------|

   Bridge
G|---------------------------------------------------|
D|---------------------------------------------------|
A|---2---3---4-------5-5-5-5-5-5---7-7-7-7-7-7-4-7---|
E|---------------------------------------------------|
[ Tab from: http://www.guitartabs.cc/tabs/t/toto/hold_the_line_btab_ver_3.html ]
chorus
G|-----------------------------------------------------------|
D|---4--------------------4----------------------------------|
A|-------4--5--5--7-----------4--5--5--7-----7---4---3---2---|
E|-----------------------------------------------------------|

G|----------------|----------------|------------|------------|
D|----------------|----------------|------------|------------|
A|---Riff-A(X2)---|---Riff-B(X2)---|---Bridge---|---Chorus---|
E|----------------|----------------|------------|------------|

   "Luke" guitar solo
G|-------------|-------------------------------------------------------|
D|-------------|---4-4-4-4-4-4-----------------------------------------|
A|---Chorus----|----------------4--5--5--7-7-7-7---4h5h7--4h5h7--4h5---|
E|-------------|-------------------------------------------------------|


G|---------------------------------------------------|
D|---4-4-4-4-4-4-------------------------------------|
A|----------------4--5--5--7-7-7-7-7-7-7-7-7-7-7-7---|
E|---------------------------------------------------|


G|---------------------------------------------------|
D|---4-4-4-4-4-4-------------------------------------|
A|----------------4--5--5--7-7-7-7-7-7-7-7-7-7-7-7---|
E|---------------------------------------------------|


G|---------------------------------------------------|
D|---4-4-4-4-4-4------------------------4------------|
A|----------------4--5--5--7-7-7-7-7-7-----4--3--2---|
E|---------------------------------------------------|


G|-----------|------------|----------------------------|
D|-----------|------------|----------------------------|
A|---Verse---|---Bridge---|---Chorus-(until-the-end)---|
E|-----------|------------|----------------------------|
Comments