Toto - Hold The Line Chords & Tabs

 

Hold The Line Chords & Tabs

Toto Chords & Tabs

Version: 2 Type: Bass Tab 0 ratings
1 star 2 stars 3 stars 4 stars 5 stars
comments

Hold The Line Bass Tab

-------------------------------------------------------------------------------
			     Toto- Hold the line
-------------------------------------------------------------------------------

Tabbed By : moody green

Tuning: standard EADG
Intro & Chorus
G|-----------------------------------------------------------------------|
D|-----------------------------------------------------------------------|
A|-----------9----4-55-7------9---4--55-7------7-4-3-2-------------------|
E|-----------------------------------------------------------------------|
Verse
G|-----------------------------------------------------------------------|
D|-----------------------------------------------------------------------|
A|--2-3-4----4--7--9---4--7--9----4-3-2----------------------------------|x2
E|-----------------------------------------------------------------------|
[ Tab from: http://www.guitartabs.cc/tabs/t/toto/hold_the_line_btab_ver_2.html ]
G|-----------------------------------------------------------------------|
D|-----------------------------------------------------------------------|
A|--2-3-4----2--4-5---4-5--7-----7--4-3-2--------------------------------|x2
E|-----------------------------------------------------------------------|
Bridge 
G|-----------------------------------------------------------------------|
D|-----------------------------------------------------------------------|
A|------2-3-4----555555---777777-----------------------------------------|
E------------------------------------------------------------------------|




Solo (same as chorus and then play this 4 times)
G|-----------------------------------------------------------------------|
D|-----------------------------------------------------------------------|
A|--999999--4--55--7777777------------7--4-3-2---------------------------|
E|-----------------------------------------------------------------------|

outro same as chorus and intro

Song structure:
Intro 
verse 
bridge 
chorus
verse 
bridge 
chorus
solo
verse
chorus/outro

Listen for any mistakes..... 
have fun and remember : Live life like a jack in the box!;-)
Comments