Toto - Dont Chain My Heart Chords & Tabs

 

Dont Chain My Heart Chords & Tabs

Toto Chords & Tabs

Version: 1 Type: Bass Tab 0 ratings
1 star 2 stars 3 stars 4 stars 5 stars
comments

Dont Chain My Heart Bass Tab

Date: September, 29th 1999
Subject: "Don't Chain My Heart" by Toto

Tabbed by Stefano Favero

Listen to the song for notes lenght and times to play tabs.


Intro & Verses

G||---------------------------------------------------------------------||
D||---------------------------------------------------------------------||
A||--2--2--2--2-----0--2--2--2--2--5--7--7--7--7-----5--7--7--7--7--5/--||
E||--------------2--------------------------------7---------------------||


PreChorus

||--------------------------------------------------------------|-
||--------------------------------------------------------------|-
||-----------------5--5--5--5--5-----------------7--7--7--7--7--|-
||--7--7--7--7--7-----------------5--5--5--5--5-----------------|-
[ Tab from: http://www.guitartabs.cc/tabs/t/toto/dont_chain_my_heart_btab.html ]
-|-----------------------------------------------------------------|--------------------------------------||
-|-----------------------------------------------------------------|--------------------------------------||
-|-----------------5--5--5--5--5--------------------9--9--9--9--9--|--9--9--9--9--9--9--9--9--9--9--9--9--||
-|--7--7--7--7--7-----------------5--5--5--5--5--5-----------------|--------------------------------------||


Chorus & Guitar Solo

||--------------------------------------------------------------||
||--------------------------------------------------------------||
||-----------------5--5--5--5--5--7--7--7--7--7--5--5--5--5--5--||
||--7--7--7--7--7-----------------------------------------------||


Bassline for
"Don't Chain My Don't Chain My Heart"
||-------------------------------------||
||-------------------------------------|| Notes follow words.
||--7-----5---7---5----------5---7...--||
||----------------------7--------------||

Comments