Toto - Africa Chords & Tabs

 

Africa Chords & Tabs

Toto Chords & Tabs

Version: 2 Type: Bass Tab 0 ratings
1 star 2 stars 3 stars 4 stars 5 stars
comments

Africa Bass Tab

   
TOTO - "Africa" - Bass Tab

I think this may be in cut time, but I've written it in (4/4)
standard tuning(EADG)

INTRO:

|------------------|----------|
|*-----------------|---------*|
|*---------------4-|---------*| (x4)
|--5---5-5-5-5-4---|----------|
   1 & a 2 & 3 & 4   1 2 3 4

VERSE:

|------------------|-1---1-1---------|-----------------|
|*---------1---1-1-|---------4---4-4-|-2---2-2-4---4-4-|
|*-2---2-2---------|-----------------|-----------------|
|------------------|-----------------|-----------------|
   1 & a 2 3 & a 4   1 & a 2 3 & a 4   1 & a 2 3 & a 4

|-------------------|--------|
|-6---6-6-7---7-7-7-|-7-6---*|
|-------------------|-----4-*| (x3)
|-------------------|--------|
  1 & a 2 3 & a 4 &   1 & 2

|-----------------|-----------------|---------------6-|---------|
|-----------------|-6---6-6-6---6-6-|-7---7-7-7-7-6---|---------|
|-2---2-2-6---6-6-|-----------------|-----------------|---------|
|-----------------|-----------------|-----------------|---------|
  1 & a 2 3 & a 4   1 & a 2 3 & a 4   1 & a 2 & 3 & 4   1 2 3 4

CHORUS:

|------------------|------------------|
|*-4---4-4---------|-----------------*|
|*---------5---5-5-|-0---0-0-7---7-5-*| (x3)
|------------------|------------------|
   1 & a 2 3 & a 4   1 & a 2 3 & a 4

|-----------------|-----------------|-------------------|
|-4---4-4---------|-----------------|---------4---4-4-6-|
|---------5---5-5-|-0---0-0-4---4-4-|-7---7-7-----------|
|-----------------|-----------------|-------------------|
  1 & a 2 3 & a 4   1 & a 2 3 & a 4   1 & a 2 3 & a 4 &

|------------------|----------|
|*-----------------|---------*|
|*---------------4-|---------*| (x2)
|--5---5-5-5-5-4---|----------|
   1 & a 2 & 3 & 4   1 2 3 4

KEYBOARD SOLO:
[ Tab from: http://www.guitartabs.cc/tabs/t/toto/africa_btab_ver_2.html ]
|-----------------|-1---1-1---------|-----------------|
|---------1---1-1-|---------4---4-4-|-2---2-2-4---4-4-|
|-2---2-2---------|-----------------|-----------------|
|-----------------|-----------------|-----------------|
  1 & a 2 3 & a 4   1 & a 2 3 & a 4   1 & a 2 3 & a 4

|-------------------|-------|-----------------|-----------------|
|-6---6-6-7---7-7-7-|-7-6---|-----------------|-6---6-6-6---6-6-|
|-------------------|-----4-|-2---2-2-6---6-6-|-----------------|
|-------------------|-------|-----------------|-----------------|
  1 & a 2 3 & a 4 &   1 & 2   1 & a 2 3 & a 4   1 & a 2 3 & a 4

|---------------6-|---------|
|-7---7-7-7-7-6---|---------|
|-----------------|---------|
|-----------------|---------|
  1 & a 2 & 3 & 4   1 2 3 4

END:

|------------------|------------------|
|*-4---4-4---------|-----------------*|
|*---------5---5-5-|-0---0-0-7---7-5-*| (x7)
|------------------|------------------|
   1 & a 2 3 & a 4   1 & a 2 3 & a 4

|-----------------|-----------------|-------------------|
|-4---4-4---------|-----------------|---------4---4-4-6-|
|---------5---5-5-|-0---0-0-4---4-4-|-7---7-7-----------|
|-----------------|-----------------|-------------------|
  1 & a 2 3 & a 4   1 & a 2 3 & a 4   1 & a 2 3 & a 4 &

|------------------|---------|-----------------|
|*-----------------|---------|-----------------|
|*---------------4-|---------|---------------4-|
|--5---5-5-5-5-4---|---------|-5---5-5-5-5-4---|
   1 & a 2 & 3 & 4   1 2 3 4

|------------------------------------|
|-----------18-------18-------18----*|
|-----16-18----16-18----16-18----18-*| (fade-out)
|------------------------------------|
  1 & a  2  e  &  a  3  e  &  a  4

By: Johari Taylor
E-mail: viking@powerup.com.au


Comments