Total Chaos - Tomorrow Chords & Tabs

 

Tomorrow Chords & Tabs

Total Chaos Chords & Tabs

Version: 1 Type: Tab 0 ratings
1 star 2 stars 3 stars 4 stars 5 stars
comments

Tomorrow Tab

   
  
tuning  standart        *palm mute 
intro(part 1)
G|4-4-------------------------
D|4-4-x6-4-4----6-6----2-2----
A|2-2----4-4-x6-6-6-x6-2-2-x6-
E|-------2-2----4-4----0-0----
    *      *      *      *

intro(part 2)
G|4-4-------------------9--8-6-|
D|4-4-x6-4-4----6-6-----9--8-6-|
A|2-2----4-4-x6-6-6-x6--7--6-4-|
E|-------2-2----4-4------------|
    *      *      *
[ Tab from: http://www.guitartabs.cc/tabs/t/total_chaos/tomorrow_tab.html ]
chorus
G|4-44444---------------------------|
D|4-444444-44-44446-6-666-2-22-2222-|
A|2-222224-44-44446-6-666-2-22-2222-|x2
E|-------2-22-22224-4-444-0-00-0000-|

verse
G|4-4-----------------------------4-4-----------------------------------|
D|4-4-x14-4-4-----6-6-----2-2-----4-4-x14-4-4-----6-6-----2-------------|
A|2-2-----4-4-x14-6-6-x14-2-2-x14-2-2-----4-4-x14-6-6-x14-2--let ring---|
E|--------2-2-----4-4-----0-0-------------2-2-----4-4-----0-------------|
    *       *       *       *       *       *       *
then;
chorus  x6
verse
chorus  x8
then comes the solo but i cant figyre it out  .sorry  play chorus instead
keep repaeting chorus till the end.

PEACE
Comments