Total Chaos - Not Over Her Chords & Tabs

 

Not Over Her Chords & Tabs

Total Chaos Chords & Tabs

Version: 1 Type: Tab 0 ratings
1 star 2 stars 3 stars 4 stars 5 stars
comments

Not Over Her Tab

Song: Not Over Her  
Artist: Total Chaos
Tabber: Thomas Harvey
[ Tab from: http://www.guitartabs.cc/tabs/t/total_chaos/not_over_her_tab.html ]
Intro / Bridge
E|-------------------------------------------------|
A|-------------------------------------------------|
D|-------------------------------------------------|High Distortion
G|---57----57----57----75----57----57----57----75--|
B|77-35-77-35-77-35-77-53-77-35-77-35-77-35-77-53--|
E|55----55----55----55----55----55----55----55-----|
Pre-Chorus
E|-------------------------------------------------------------------|
A|-------------------------------------------------------------------|
D|-------------------------------------------------------------------|High
G|7777777777777777-5555555555555555-7777777777777777-5555555555555555|Distor-
B|5555555555555555-3333333333333333-5555555555555555-3333333333333333|toin
E|-------------------------------------------------------------------|
Chorus
E|------------------------------------------|
B|------------------------------------------|
G|------------------------------------------|High Distortion
D|---57---57---57---75---57---57---57---75--|
A|77-35-7-35-7-35-7-53-7-35-7-35-7-35-7-53--|
E|55----5----5----5----5----5----5----5-----|
Verse
E|-------------------------------------|
A|-------------------------------------|
D|-------------------------------------|High Distortion
G|---------55555555--------------------|A little bit quieter than the rest
B|55555555-33333333-33333333-77777777--|of the song
E|33333333----------11111111-55555555--|
Solo
E|-----------------------------------------|
B|----5-5/-7---5-5\-3---5-5/-5--5-5\3/8-5--|
G|---5-55/-7--5-55\-3--5-55/-5-5-55\3/8-5--|Clean
D|-----------------------------------------|
A|-----------------------------------------|
E|-----------------------------------------|

ORDER

Intro                
Verse
Pre-Chorus         
Chorus
Verse
Bridge
Verse
Pre-Chorus
Chorus
Solo
Pre-Chorus
Chorus
Comments