Toshiro Masuda - I Said Im Naruto Chords & Tabs

 

I Said Im Naruto Chords & Tabs

Toshiro Masuda Chords & Tabs

Version: 1 Type: Tab 0 ratings
1 star 2 stars 3 stars 4 stars 5 stars
comments

I Said Im Naruto Tab

This is my first time to have a tablature in ug...watch out nalang..


Guitar 1
E |-----------------------------------------0------------------------| 
B |-------------------1-3-3-1-3-1-3-3-1-3----3-0--------------------| 
G |--2-0-2-0-2-2-0-2------------------------------2-2-0-2------------|2x   
D |------------------------------------------------------------------| 
A |------------------------------------------------------------------| 
E |------------------------------------------------------------------|

Guitar 2
E |--5--8-10-12--------------------------------------------------------| 
B |-------------------------------------------------------------------| 
G |--------------------------------------------------------------------|2x   
D |--------------------------------------------------------------------| 
A |--------------------------------------------------------------------|
E |--------------------------------------------------------------------|


[ Tab from: http://www.guitartabs.cc/tabs/t/toshiro_masuda/i_said_im_naruto_tab.html ]
guitar 2
E |----------12-10-8---------12-10-15-12------------12-10-8-12-10-15-17-12| 
B |-10-8-10----------10-8-10---------------10-8-10--------------------| 
G |--------------------------------------------------------------------|   
D |--------------------------------------------------------------------| 
A |--------------------------------------------------------------------| 
E |--------------------------------------------------------------------|

tapos ulit ulit sa umpisa pero dun sa guitar 2 sahuli imbis na 12, 15 na..
eto na ung huli...

Guitar 2
E |-17-15-12-15-10-12-10-8-10-5-8-5-3-5-3-3-3-5-3-5-15 17--------------| 
B |-------------------------------------------------------------------| 
G |--------------------------------------------------------------------|   
D |--------------------------------------------------------------------| 
A |--------------------------------------------------------------------|
E |--------------------------------------------------------------------|

un na... madali lng yan.....naruto fan din ako..ung gs2ng may eemail skn
e2 email add ko bugsy_2003@eudoramail.com, may soundtracks din ako....my
name nga pala is mikhail.....
Comments