Tornados - Joystick Chords & Tabs

 

Joystick Chords & Tabs

Tornados Chords & Tabs

Version: 1 Type: Tab 0 ratings
1 star 2 stars 3 stars 4 stars 5 stars
comments

Joystick Tab

The Tornados - Joystick
From The Album: Play Telstar and Other Great Hits
Tabbed by: John Earp spydrmann2000@yahoo.com 10-24-2004

This is my second tab and so I noticed the printing problem
with the first one.  I have adjusted this and it should
print fine.

Standard Tuning
My rig is a Roland Cube 30 and a Squire Jagmaster
I play this song on the lead channel R-Fier with no gain and 
lots of reverb and flanger.  All eq's at max.

This song has two main instruments that I can actually tab.  
There is a guitar and keyboard/synth.  I have tabbed both out
for the guitar here so that you can play the whole song on
one instrument with one tuning setting.  Enjoy!

Synth Part

------------------------------------------------------------------------
------------------9-9-11-12-11---10-10-12-13-12-12s14-15-14---9---------
-11-11-13-15-14---------------------------------------------------------
------------------------------------------------------------------------
------------------------------------------------------------------------
------------------------------------------------------------------------



------------------------------------------------------------------------
-----------------9-9-11-12-11--------14----9-11-12---9-11-9----7--------
-11-11-13-15-14---------------------------------------------------------
------------------------------------------------------------------------
------------------------------------------------------------------------
------------------------------------------------------------------------



------------------------------------------------------------------------
------------------9-9-11-12-11---10-10-12-13-12-12s14-15-14---9---------
-11-11-13-15-14---------------------------------------------------------
------------------------------------------------------------------------
------------------------------------------------------------------------
------------------------------------------------------------------------



------------------------------------------------------------------------
-----------------9-9-11-12-11------14----9-11-12---9-11-9----7----------
-11-11-13-15-14---------------------------------------------------------
------------------------------------------------------------------------
------------------------------------------------------------------------
------------------------------------------------------------------------

Guitar Part

--15-15-14-12------14-14-12-10----------9s11---9------------------------
--------------12---------------------12------------9--9s11-14-----------
------------------------------------------------------------------------
------------------------------------------------------------------------
------------------------------------------------------------------------
------------------------------------------------------------------------



--15-15-14-12-----14-14-12-10--10-10-10-10s12---------------------------
--------------12------------------------------12-13-13-15-13-12-10------
------------------------------------------------------------------------
------------------------------------------------------------------------
------------------------------------------------------------------------
------------------------------------------------------------------------

Synth Part again with a new ending
[ Tab from: http://www.guitartabs.cc/tabs/t/tornados/joystick_tab.html ]
------------------------------------------------------------------------
------------------9-9-11-12-11---10-10-12-13-12-12s14-15-14---9---------
-11-11-13-15-14---------------------------------------------------------
------------------------------------------------------------------------
------------------------------------------------------------------------
------------------------------------------------------------------------



------------------------------------------------------------------------
-----------------9-9-11-12-11--------14----9-11-12---9-11-9-------------
-11-11-13-15-14---------------------------------------------------------
------------------------------------------------------------------------
------------------------------------------------------------------------
------------------------------------------------------------------------


------------------------------------------------------------------------
--7-7-7--9-9-9--7-7-7---------7-7-7--9-9-9--7---------------------------
-----------------------9-9-9--------------------5-5-5-5-----------------
------------------------------------------------------------------------
------------------------------------------------------------------------
------------------------------------------------------------------------

Guitar Part again

--15-15-14-12------14-14-12-10----------9s11---9------------------------
--------------12---------------------12------------9--9s11-14-----------
------------------------------------------------------------------------
------------------------------------------------------------------------
------------------------------------------------------------------------
------------------------------------------------------------------------



--15-15-14-12-----14-14-12-10--10-10-10-10s12---------------------------
--------------12------------------------------12-13-13-15-13-12-10------
------------------------------------------------------------------------
------------------------------------------------------------------------
------------------------------------------------------------------------
------------------------------------------------------------------------

Synth Part again with a new ending

------------------------------------------------------------------------
------------------9-9-11-12-11---10-10-12-13-12-12s14-15-14---9---------
-11-11-13-15-14---------------------------------------------------------
------------------------------------------------------------------------
------------------------------------------------------------------------
------------------------------------------------------------------------



------------------------------------------------------------------------
-----------------9-9-11-12-11--------14----9-11-12---9-11-9-------------
-11-11-13-15-14---------------------------------------------------------
------------------------------------------------------------------------
------------------------------------------------------------------------
------------------------------------------------------------------------

Play softer and softer to fade out like they do.

------------------------------------------------------------------------
--7-7-7--9-9-9--7-7-7---------7-7-7--9-9-9--7-7-7-----------------------
-----------------------9-9-9-----------------------9-9-9----------------
------------------------------------------------------------------------
------------------------------------------------------------------------
------------------------------------------------------------------------



------------------------------------------------------------------------
--7-7-7--9-9-9--7-7-7---------7-7-7--9-9-9--7-7-7-----------------------
-----------------------9-9-9-----------------------9-9-9----------------
------------------------------------------------------------------------
------------------------------------------------------------------------
------------------------------------------------------------------------

Please feel free to email any corrections, comments, suggestions to: 
spydrmann2000@yahoo.com

Comments