Torn Between - Lie Chords & Tabs

 

Lie Chords & Tabs

Torn Between Chords & Tabs

Version: 1 Type: Tab 0 ratings
1 star 2 stars 3 stars 4 stars 5 stars
comments

Lie Tab

   
Intro/Verses/End of Chorus
D-0-0-0-2-3-0-0-0-6-5-------------------------------------
A-0-0-0-2-3-0-0-0-6-5-------------------------------------
D-----------------------------------------------
G-----------------------------------------------
B-----------------------------------------------
E-----------------------------------------------

Chorus(repeat 3 times)
D-3-3-3-3-3-3-3-3-5-5-5-5-5-5-5-5-0-0---------0-0---------0-0------------------------
A-3-3-3-3-3-3-3-3-5-5-5-5-5-5-5-5-0-0-3-3-3-3-0-0-3-3-3-3-0-0-3-3-3-3-5-5-5-5-5-5-5-5
D------------------------------------------------------------------------------------
G-------------------------------------3-3-3-3-----3-3-3-3-----3-3-3-3-5-5-5-5-5-5-5-5
B------------------------------------------------------------------------------------
E------------------------------------------------------------------------------------
[ Tab from: http://www.guitartabs.cc/tabs/t/torn_between/lie_tab.html ]
End of Chorus(repeat 4 times)
D-0-0-0-2-3-0-0-0-6-5----
A-0-0-0-2-3-0-0-0-6-5----
D------------------------
G------------------------
B------------------------
E------------------------

Bridge(repeat 3 times(on third time end on the first 3 after the 5's))
D-3-3-3-3-3-3-3-3-2-2-2-2-2-2-2-2-5-5-5-5-5-5-5-5-3-3-3-3-3-2-3-2-
A-3-3-3-3-3-3-3-3-2-2-2-2-2-2-2-2-5-5-5-5-5-5-5-5-3-3-3-3-3-2-3-2-
D------------------------
G------------------------
B------------------------
E------------------------

Standing in this crowded room
I look around
Pretending to be someone that i'm not
Standing in this crowded room
Living in this crowded room
there's no one in this crowded room but me

These scales on my eyes
covered in despise
this is my demise
Am i living a lie

faceless within these walls
searching for the soul inside of me
i beg myself to my knees
release the mask 
that binds me

Lie(4x)
Comments