Toots And The Maytals - 54 46 Thats My Number Chords & Tabs

 

54 46 Thats My Number Chords & Tabs

Toots And The Maytals Chords & Tabs

Version: 2 Type: Bass Tab 0 ratings
1 star 2 stars 3 stars 4 stars 5 stars
comments

54 46 Thats My Number Bass Tab

Song: 54-46 Thats My Number
Band: Toots and The Maytals
Album:
tabbed by: Mike Gonzales (thegonz1@hotmail.com)


Repeat 8 times
[ Tab from: http://www.guitartabs.cc/tabs/t/toots_and_the_maytals/54_46_thats_my_number_btab_ver_2.html ]
G:---------------------------------------------------------------
D:-------------5-3---------------------------------------------
A:--------------------5----3-3---------------------------------
E:-----3---------------------------------------------------------

"Give it to me one time...give it to me two times..."

G:---------------------------------------------------------------
D:---------------------------------------------------------------
A:----3---33---333---3333------------------------------
E:---------------------------------------------------------------

Fun and easy little bass line I like to mix up when I'm jamming with the 
boys.
Comments